Felipe Es Un Punk

Las Vulpess

Genero:

Tablatura

jalipe es un punk de las vulpess
wena rola se el intro no se si va asi
pero suena luego les paso lo otrO~ ke tengo weba

saludos

J0Z3AR


intro

|--------------------|
|--------------------|
|--9-----------------|
|--9---------7-9-----|
|--7---------7-9-----|
|------------5-7-----|

|---------------------------|
|---------------------------|
|-9----------5----7----4----|
|-9-x8-7-x8--5-x8-7-x4-4-x8-| x4
|-7----7-----3----5----2----|
|------5--------------------|

...felipe es un punk
|------------------------|
|------------------------|
|------------------------|
|--10-10-10---9----9-9-9-|
|--10-10-10---9-x3-9-9-9-|
|--8--8--8----7----7-7-7-|

verso
Tiene la cara amarilla de hepatitis que ha pasado
Sus ojos reflejan el vicio, de todo esta cansado
Con sus bolsillos llenos de setas tienen dominado el cerebro
Siempre va cargado de cadenas, es esclavo de su cuerpo

|----------------------|
|----------------------|
|-9-----5----7----4----|
|-9-x8--5-x8-7-x8-4-x8-| x4
|-7-----3----5----2----|
|----------------------|

Felipe es un punk
Felipe es un punk
Felipe es un punk

|------------------|
|------------------|
|------------------|
|--10---9----9-9-9-|
|--10---9-x2-9-9-9-|
|--8----7----7-7-7-|

Su negra chupa de cuero esta ya muy gastada
Siempre la active… no la cambiaria por nada
El dice que no es nadie y sus viciosos ojos brillan
Cuando le digo tu eres para miiii

|----------------------|
|----------------------|
|-9-----5----7----4----|
|-9-x8--5-x8-7-x8-4-x8-| x4
|-7-----3----5----2----|
|----------------------|

Felipe es un punk
Felipe es un punk
Felipe es un punk

|------------------|
|------------------|
|------------------|
|--10---9----9-9-9-|
|--10---9-x2-9-9-9-|
|--8----7----7-7-7-|

ESTO ES AL FINAL
|-----------|
|-----------|
|-9-5-7-4~--|
|-9-5-7-4~--|
|-7-3-5-2~--|
|-----------|

Y AHI ACABA LA ROLA

SALUDOS ALA RAZA DE LAZAROCK Xd

ME LARGO SIN ANTES HACERME PUBLICIDAD JOS_ROCKR@HOTMAIL.COM