La Chicharra Cantora

Las Voces De Orán

Genero:

Tablatura

Les recuerdo que tengo la guitarra afinada en 440hz.
(440 hz, la afinación correcta para la guitarra o
la afinación del afinador electrónico).
En todas mis transcripciones es lo mismo,

Con el mismo tono en que la cantan los interpretes
de cualquier canción;

En este caso “Las Voces de Oran”
PUNTEO
D
E-------------------- -14-17-17
B-------15-------15-- ---------
G-14-14----14-14----- ---------
D-------------------- ---------
A-------------------- ---------
E-------------------- ---------
A7 D
E-14-14---15-14-----------------
B-------17-------17-15-14-15-15
G-------------------------------
D-------------------------------
A-------------------------------
E-------------------------------

BORDONEO

D A7 D
E-------------- ------- ---------------------
B-------------- ------- ---------------------
G-------------- ---2-2- ---------0------------
D-------------- -4----- -4-4-2--4-2-0---0-0-
A-0-0-5--0-0-5- ------- ----------------4-----
E-------------- ------- ---------------------



D
Ay chicharra no quiero que cantes
Que si cantas me quitas el sueño
A7 D
No hay descanso pa’ este pobre hachero
A7 D
En las siesta del Chaco Salteño

Chicharrita pudiera tu canto
Convertirlo en una chacarera
Y cantarla pa’ los carnavales
En mi pago, las noches enteras

Es tu vida tan corta chicharra
Ya no escucho tu canto que quiero
Ya se fue por los algarrobales
Volverá con el sol de Febrero


ESTRIBILLO
D
Solo el quenti madura tu canto
Aspa rubia dulzura del pobre
A7 D
Que en la aloja dará si madura
A7 D
Un consuelo pa\' mi sinsabores


La chicharra con el chicharrito
Se divierten cantando a la siesta
Los paisano miedoso del diablo
Se lo pasan haciendo promesa

Ay chicharra violín de verano
Canto solo en el cielo celeste
Ala suelta del sol de los chacos
Anunciando en el canto su muerte

Cuando vuelva mi vida a la tierra
Como vuelve la tuya en febrero
De retorno seré nuevamente
Mariposas de coplas y sueño.