Himno Hoshible

La Vida Es Un Comic

Genero:

Tablatura

e-|-----0-------0-------0-------0--------0-------0--|-
B-|-2-------2-------3-------3--------2-------2------|-
G-|---2---2---2---2---2---2---2---2----2---2---2---2|-
D-|-------------------------------------------------|-
A-|-------------------------------------------------|-
E-|-------------------------------------------------|-

e-|----0--2-2-2-0-----------------------------------|-
B-|0--------------2-3-2-----------------------------|-
G-|--2----------------------------------------------|-
D-|-------------------------------------------------|-
A-|-------------------------------------------------|-
E-|-------------------------------------------------|-


A F#m
Hola hoshibles como están
D
hoy nos separa el mar
pero el jueves juntos
E
de nuevo a las 20

A F#m
Kion sigues en europa
D
yo sigo aquí en la dota
pero el jueves juntos
E
de nuevo en un hangout

F#m D
y hay algo mas
A
estarán otros youtubers
E
vos también podes estar
y hay algo mas


F#m
como en el hagstag
mientras mas lo uses
D
mas adentro vos estas
y en el Facebook
A
otra forma de ganar
de participar
E
mientras tengas mic
mientras tengas cam
A
y hay algo mas