Un Frasco

La Vela Puerca

Genero: Rock

Tablatura

Riff 1
G D# G D#
E-----3--------|-----3------------|
B-------3-4----|-------3-4--------|
G--0-----------|--0---------------|
D--------------|------------------|
A--------------|------------------|
E--------------|------------------|

Riff (Bajo)
E|---3-2-3----------------|---3-2-3----------------------|
B|---------1-0-1----------|---------1-0-1--------1-0-1---|
G|---------------1-0-1----|---------------1-0-1----------|
D|------------------------|------------------------------|
A|------------------------|------------------------------|
E|------------------------|------------------------------|

|---3-2-3----------------|---3-2-3----------------|
|---------1-0-1----------|---------1-0-1----------|
|---------------1-0-1----|---------------0-1------|
|------------------------|------------------------|
|------------------------|------------------------|

(Se continúa con el riff 1 con la guitarra si se prefere)

G D# G
Hola, dejen el saco en mi alcoba
D#
y después me siguen,
G D# G
tengo ganas por este momento;
D#
hoy será distinto:
G D# G
creo que la cena está servida,
D#
y disfruten de todo.
G D# G
Luego hablemos amablemente,
D#
seguro hay motivos.

Estribllo:
Bb F D# Bb
Me pregunto, y titubeo, si sospechan lo que espero
F D#
que suceda hoy aquí;
Bb F D# Bb
Tengo planes para todos, tengo fuerza, tengo el modo,
F D#
incluyéndome hasta mí:
G# D# C# G# D# C#
len to, sua ve, letal.


G D# G
Miren, una vez más todos juntos
D#
¿cómo es que han estado?
G D# G
juro, los extrañé muchas veces,
D#
voy a ser sincero.
G D# G
Mientras, háblenme sobre sus cuentas,
D#
seguro han crecido,
G D# G
vamos, que hay que brindar por la nuestra,
D#
y un vino merecido.

Estribllo:
Bb F D# Bb
Me pregunto, y titubeo, si sospechan lo que espero
F D#
que suceda hoy aquí;
Bb F D# Bb
Tengo planes para todos, tengo fuerza, tengo el modo,
F D#
incluyéndome hasta mí:
G# D# C# G# D# C#
len to, sua ve, letal.

Riff (Bajo)


Rian, todo seguro y en calma,
pero no se olviden:
traten de recordar las mentiras
que sostienen sus vidas.
Gusten, el vino está un poco raro,
pero no se asusten;
pasen juntos para el otro lado,
que yo también soy malo.

Estribllo:
Bb F D# Bb
Me pregunto, y titubeo, si sospechan lo que espero
F D#
que suceda hoy aquí;
Bb F D# Bb
Tengo planes para todos, tengo fuerza, tengo el modo,
F D#
incluyéndome hasta mí:
G# D# C# G# D# C#
len to, sua ve, letal.
Bb F D#
Ya no hay duda, y entendieron,
Bb
copas rotas por el suelo:
F D#
hoy la Muerte va a venir,
Bb F D# Bb
y el diario saldrá diciendo del horror que ha sucedido
F D#
y que el veneno era así:
G# D# C# G# D# C#
len to, sua ve, letal. [x3]

Ehí esta mejor ;)
.::Lauchys::.