Sr. Claridad

La Vela Puerca

Genero:

Tablatura

Intro: Base en Am - G
Trompeta intro:
E---------------------------------------------------------
B--5------------------------------------------------------
G----7--5--4--5--4--------4---5------------4--5--4--------
D-------------------7--5---------7---5--7------------7----

E---------------------------------------------------------
B--5------------------------------------------------------
G----7--5--4--5--4--------4---4h5---5--4--------5---------
D-------------------7--5------------------7--5-----7------


Am G
Hay mucha gente sin hogar,
Am G
Y muchas más que no sabés.
Am G
Que desesperados están,
Am G
y sin tener para comer.

Am G
y poder darles una mano,
Am G
seria una buena razon.
Am G
y sin mentirle demasiado al corazon,
Am G
ser capaz de verlos mas que vos.

Trompeta intro (Base en Am-G)

Am G
saber tener y saber dar
Am G
poder ser incondicional
Am G
tengo una luna para vos
Am G
que brilla siempre en su lugar

Am G
poder montarles una fiesta
Am G
y toquen una vez la gloria
Am G
ser mas que hoy y patearles la humillacion
Am G
che como andas? vos como sos?


nicokolo@hotmail.com