Sin Palabras

La Vela Puerca

Genero: Rock

Tablatura

Intro (RIFF 1):

e/-------------------------------------
B/------3-----------------5------------
G/--3-3---3------2----5-5---5------2---
D/-----------3-3---3-----------3-3---3-
A/-------------------------------------
E/-------------------------------------

(empieza la letra y va cn el punt de la intro)

Voy hablando sin palabras,
Voy mirando sin ojos.
Agarrando sin las manos,
Viviendo sin corazón.

(despues entra la 2da gtarra q empieza a tokar las notas
y hace los riff mientras la 1era gtarra sigue cn la intro)

Bb F C F
Al camino que elegí e/--1--1-- (RIFF 3, lo hace rapido de
B/--1--1-- Abajo hacia arriba)
G/--2--2--
Bb F C F
Yo no se que me llevo e/--6-5-3--- (RIFF 4)
B/--------6-

Bb F C F
Si las vueltas de la vida RIFF 3


O si las vueltas las di yo RIFF 4


(aca la 2da gtarra se keda haciendo lo mismo mientras
la 1era va haciendo esto):

RIFF 2
G/----------------------
D/--8-8-8-7-7-7-5-5-5---
A/--------------------8-

Ojalá que las palabras
Que hablan de la soledad
Busquen un acompañante
Y no hablan solo por hablar

Intermedio trompeta:(la gtarra 1 hace el RIIF 2
y la 2da gtarra toka las notas)

Trompeta:

Bb F C F Bb F C F
E/-------5---------------5--8-8-----
B/---6-8---6-6-------6-8------------ X2
G/----------------------------------






Corre humo por mis venas
Con un fuerte olor dulzón
No tengo noticias tuyas
Y ya perdí la razón

Tengo miedo en el olvido
Y me mata el ansiedad
En ese tiempo de distancia
Vive lo que no se da

Ojalá que cuando vuelvas
B decidas volver
Vuelvas con la frente en alto
Para que lo puedas ver

Intermedio tromopeta

Parte Principal Trompeta:(la 2da gtarra hace los acordes normales)

Bb F C F
E/--13--12-10----------------8-10p8-8-
B/------------13--11-10-8-10----------
G/------------------------------------
Bb F C F
E/--13--12-10---------------------------
B/------------13--11-10-11-10--8-10-----
G/----------------------------------10--




Voy hablando sin palabras,
Voy mirando sin ojos.
Agarrando sin las manos,
Viviendo sin corazón.

Ojalá que cuando vuelvas
B decidas volver
Vuelvas con la frente en alto
Para que lo puedas ver

Intermedio de tromp. X2

Parte Principal Trompeta. X2

Fin.

(gracias por las voces)