Sanar

La Vela Puerca

Genero: Rock

Tablatura

    e B G D A E
Bb 1 3 3 3 1 x
F 1 1 2 3 3 1
Dm 1 2 3 0 x x
C 0 1 0 2 3 x


e ---------------------------------------
B ---------------------------------------
G -2-2-0-2-3-5---2-2-0-2-3-5-------------
D -------------3-------------------------
A ---------------------------------------
E ---------------------------------------

1.
Bb C F
Salí despacio, cuidando de
Bb C F
No estropear la jornada
Bb C Dm
Que mi cabeza ahora pide volver
Bb C
Y ya no lastimar..

1.
Hoy me convenzo de que estoy bien
Y mañana resbalo
No sé porqué, ahora respiro al revés
Y no me puedo hablar...

2.
Bb C
Lo que entiendo es que mi canción,
F C Dm
Ya no me quiere sanar
Bb C
¿Será que a algunos les cae bien
F C Dm
Y a mi no me deja entrar?

3.
Bb C
Hoy no consigo dormir…
Bb C
Y así despierto, me duele todo
Bb C
Ahora me tengo que ir...

e -------------------------------------------------------
B ---------------------------------3-3-1-3-1-------------
G -2-2-0-2-3-5---2-2-0-2-3-5---2-5-----------2---0-2-3-0-
D -------------3-------------3-----------------3---------
A -------------------------------------------------------
E -------------------------------------------------------

1.
Me faltan brazos para torcer,
Hoy no llego a abrazarme
Mi lado oscuro vuelve a arremeter
Y no me deja en paz..

1.
De a poco voy, saludándome
Y la espina se ablanda
Igual me tranco y quedo sin saber
Para dónde volar...

2.
Lo que entiendo es que mi canción,
Ya no me quiere sanar
¿Será que a algunos les cae bien
Y a mi no me deja entrar?

3.
Alguien me invito a vivir...
Pero igualmente me sentí solo
¿Adónde iré a resurgir?

e -----------------------------------------------
B -----3------------------------3----------------
G -3-5-----0-2-3-2-0---0-2--3-5----0-2-3-2---5---
D -------3-----------3------------3--------3-----
A -----------------------------------------------
E -----------------------------------------------

e ---0-1-----------------------------------------
B -3-----1---------------------------------------
G ---------3-2-3-5--2-0--------------------------
D ----------------------3-3-3--------------------
A -----------------------------------------------
E -----------------------------------------------


2.
Y lo que entiendo es que mi canción,
Ya no me quiere sanar
¿Será que a algunos les cae bien
Y a mi no me deja entrar?

3.
Hoy le pedí por favor...
Que esté conmigo y no se me esconda
Porque perdí mi motor...

e -------------------------------------------------------
B ---------------------------------3-3-1-3-1-------------
G -2-2-0-2-3-5---2-2-0-2-3-5---2-5-----------2---0-2-3-0-
D -------------3-------------3-----------------3---------
A -------------------------------------------------------
E -------------------------------------------------------

e -------------------------------------------------------
B ---------------------------------3-3-1-3-1-------------
G -2-2-0-2-3-5---2-2-0-2-3-5---2-5-----------2---0-2-3-0-
D -------------3-------------3-----------------3---------
A -------------------------------------------------------
E -------------------------------------------------------