Respira

La Vela Puerca

Album: Normalmente Anormal
Genero: Rock

Tablatura (Ver letra)

Arreglo el arpegio de A, de E y el final!
y a los muchachos de Lacuerda.net el disco se llama
"Normalmente Anormal"...
no me lo cambien por "Anormalmente Anormal"
gracias...

=====================================================

[INTRO] Asus2 x4

e|-------0-------|--|
B|----0-----0----|--|
G|---2-2--2--2-2-|x4|
D|--2---2--2--2--|x4|
A|-0-------------|--|
E|---------------|--|

[VERSO]

Asus2 se hace así

e|--------0--------|
B|-----0----0------|
G|---2--2----2-2-2-|
D|--2-2--2-2--2-2--|
A|-0---------------|
E|-----------------|

D es así

e|-----2--3--2------|
B|---3--3--3--3-3-3-|
G|--2-2--2--2--2-2--|
D|-0----------------|
A|------------------|
E|------------------|

y E así

e|--------0--------|
B|-----0----0------|
G|---1--1----2-1-1-|
D|--2-2--2-2--2-2--|
A|-----------------|
E|-0---------------|

Asus2
Hey, a donde quieres llegar?
hey, como la quieres vivir?
D
hey, lo que ahora no valorás
Asus2
después ya no va a existir

Asus2
Hey, que es lo que oís cuando hablás?
hey, sentí como respirás
D
hey, lo tuyo debe valer
Asus2
más de lo que vos pensás...aha...

E D Asus2
Y así, sin más, soñás

[SOLO] En base VERSO

A

e|---------------------------------------
B|---5~-5--3--2~-2--3---5~-5--3--2~-2--3-
G|-/6--6--4--2--2--4---6--6--4--2--2--4--
D|---------------------------------------
A|---------------------------------------
E|---------------------------------------

D

e|----------------------------------------|
B|---7~-7-5-3~-3-------5~-5--3--2~--------|
G|-/7-------------4-4/6--6--4--2--2-1-----|
D|------------------------------------(7)-|
A|------------------------------------(x)-|
E|------------------------------------(5)-|

[VERSO]

Vos que ahora te sale robar
y vos por qué te reís de él?
y yo que con la boca me da
y con la cabeza no se...no se

Y así, sin más, mordés
E D Dm Asus2
y así, sin más...mordés


[SOLO TROMPETA] En base G-D G-D-A x2

e|-3~~-3-5-3-2-----0-2-3-----3-5-3-2~--------
B|------------3---------3-------------5-7-5~-
G|-------------2~~-------4~~-----------------
D|-------------------------------------------
A|-------------------------------------------
E|-------------------------------------------

e|--3~~-3-5-3-2-----0-2-3-----3-5-3-2~-2-0-----|
B|-3-----------3---------3----------------3-5~-|
G|--------------2~~-------4~~------------------|
D|---------------------------------------------|
A|---------------------------------------------|
E|---------------------------------------------|

[FINAL] Asus2

e|--------0--------|--|
B|-----0----0------|--|
G|---2--2----2-2-2-|x3|
D|--2-2--2-2--2-2--|x3|
A|-0---------------|--|
E|-----------------|--|

e|----------------------0-|
B|----0-3--3-2--2-0-----2-|
G|---2---2----2----2-2--2-|
D|--2-----2----2----2---2-|
A|-0--------------------0-|
E|------------------------|