Por La Ciudad

La Vela Puerca

Genero: Pop Rock

Tablatura

Bueno gente, la parte del acordeón y los caños no la saque.
Agregue la tablatura de la melodía, que va al final...
Aporten lo q falta! Beso, Emi :)


Intro: G

G
Como una flecha voy por la ciudad sin pulmotor
Voy aprendiendo todo sin mas que un poco de amor
Que suban los telones de mis ganas de reir
Que le tapen la boca si se pone a discutir

C
Me llevan la corriente soy un feliz camaron
Que hay que mostrar los dientes si viene de camaleón

G
No me pregunten mas que ya no quiero contestar
Tengo poquito y nada pero mucho para dar
Llevo de todo bien de todo asi de todo mal
Voy lleno de confianza y de respeto a los demas

C
Tengo una banda amiga que me aguanta el corazon
Que siempre esta conmigo tenga o no tenga razon

G
Que podemos hacer si todo sige como va
Hay que reirce un poco que la muerte siempre esta
Vamos a hablar de algo que nos haga divertir
Que de tanta sonrisa la muerte se va inhibir

C
No soy ningun profeta soy un simple aguantador
Que siempre va de frente sea alegria o sea dolor

G
O nos compramo\' un vino y nos ponemo\' a festejar
O me llevan al nicho y como un bicho terminar

C
O nos compramo\' un vino y nos ponemo\' a festejar
O me llevan al nicho y como un bicho terminar

Bis x2
E| ----5-7-5---5-7-5---5-7 |----5-7-5---5-7-5---5--
B| 8888------8-------8---- |8888------8-------8---8

E| ------------------------ | ------------------------
B| 3333-3-3-3-----------5-3 | 3333-3-3-3--------------
G| -----------5-4-5-4-5---- | -----------5-4-5-4-5-4-0

Bis x2
E| ----5-7-5---5-7-5---5-7 |----5-7-5---5-7-5---5--
B| 8888------8-------8---- |8888------8-------8---8

E| ------------------------ | ------------------------
B| 3333-3-3-3-----------5-3 | 3333-3-3-3--------------
G| -----------5-4-5-4-5---- | -----------5-4-5-4-5-4-0

G
Tengo una banda amiga que me aguanta el corazón.