Pino

La Vela Puerca

Genero: Rock

Tablatura

 intro
A F# G A G F#
----------------------------------------------------------
----------------------------------------------------------
---------0-------------------0----------------------------
-------2-------0-----0-----2-------0-----0----------------
----4--------0-----2-----4-------2-----0------------------
--5--------2-----3-----5-------3-----2--------------------

Cuando canta:
A G
------------------------
------------------------
--------0--------0------
------2--------0--------
----4--------2----------
--5--------3------------

(2)
----------------------------------------------------------
----------------------------------------------------------
--------0------------------------0------------------------
------2-------0-----0----------2--------------------------
----4-------2-----0-----2----4----------------------------
--5-------3-----2-----3----5------------------------------

A
Hubo una vez
G A
en el que Pino se sintió mal..
G A
porque no pudo juntar los pies
G A (2)
y menos pudo llorar..
Y hubo otra vez
en el que Pino sintió la paz..
al verse riendo, de la vejez
que nunca pudo aguantar...
Se despertó
y aquella miga no estaba ahí..
pasó despacio por un portal
y consiguió revivir...
Luego a correr y a disfrutar
(antes de moquear)
que hoy se presta para no ver
soltar al chapa y bailar...
--------------5-3-2---------------------5-3-2--------2-3--
--2-3-5-2-----------5-2-5---2-3-5-2-----------5---5-------
----------4-2-------------2---------4-2-------------------
----------------------------------------------------------
----------------------------------------------------------
----------------------------------------------------------

Em B G
Pino vos sabés, que pronto puede llover
D C
¿con qué te vas a tapar?
G D
¿con quién te irás a perder?
Em B G
sólo con tu cara, teñida de sencillez
D C
se paga toda cuidad...
G D
Pero no saben, ni cómo sos
ni como hacés..
(ni como sos, ni lo que hacés)
Em
¡Pino no sueñes más!
¡Pino mové de ahí..!
D
Pino no vayas a hablar (no quieras volar, no quieras amar)
Em
vos solo pedí...
Se convenció
de que su ruina no existe más..
llegar la noche y portarse bien
(con un poco de maldad..)
Solo cambió
toda su vida (y de cinturón)
y ahora quiere soñar de pie
y atropellar al dolor.