Paren Hoy

La Vela Puerca

Album: Deskarado
Genero: Rock

Tablatura (Ver letra)

INTRO
(F - G) x4
(C - F) x8 (F en 5ta cuerda)

C F
Me da pena ese botija
C F
que anda juntando pa la sortija
C F
Por mas que cueste no es para tanto
C F
ganar el 5 pa ir llevando

C F
Paren hoy
C F
Paren hoy
C F
Paren hoy
C F
Paren hoy

Me niego a morir en la via
ni trabajar pa la policia
Ni andar de cuento ni andar de tranza
para poder llenarme la panza
Paren hoy
Paren hoy
Paren hoy
Paren hoy

Estribillo:

F-G
No te enojes si llueve
F-G
que las gotas no duelen
F-G
Solo tengo una meta
F-G
conseguir la trompeta!


Che bo no te haga el enfermo
suenan las lonjas haya en Palermo
Por mas que quiera yo voy a ir,
lo necesito para vivir
Paren hoy
Paren hoy
Paren hoy
Paren hoy

Que bien baila esa morena
que bien la mueve, que bien la lleva
Se que la yuta me anda apuntando
si Dios los cria se van juntando
Paren hoy
Paren hoy
Paren hoy
Paren hoy

Estribillo

(C - F) x4

Solo de guitarra
Base (C - F) x12

e|-------------11---------------------------------------------|
B|--11p8-11b______11r-8-11p8----------------------------------|
G|---------------------------10-10p8--------------------8-----|
D|-----------------------------------10p8-10-------8h10---10--|
A|--------------------------------------------8h10------------|
E|------------------------------------------------------------|

e|-------------------------------------------------|
B|-------------11-----11-----11-----11-------------|
G|-------8-10b----10b----10b----10b----10p8--------|
D|--8h10------------------------------------10p8---|
A|-------------------------------------------------|
E|-------------------------------------------------|

e|--------------------------------------------------------------|
B|--------------------------------------------------------------|
G|--8h9---------8---------8h9---------8-------------------------|
D|------10p8-10---10p8-10-----10p8-10---10p8-10------8h10-8h10--|
A|----------------------------------------------8h10------------|
E|--------------------------------------------------------------|

e|------------------------13-13-13-13h15--------------------15-------|
B|------11-11----------------------------13-13-13----13-15b____rp13--|
G|--10b----10b-10-8h10----------------------------14-----------------|
D|---------------------10--------------------------------------------|
A|-------------------------------------------------------------------|
E|-------------------------------------------------------------------|

e|---------------------------------------|
B|---------------------------------------|
G|--8h9---------8h9----------------------|
D|------10p8-10-----10p8-10-------10-----|
A|--------------------------10h12--------|
E|---------------------------------------|

C F
Camaron de San Telmo
C F
Camaron de Paris
C F
Camaron de Palermo
C F
o de algun otro pais...

Camaron de San Telmo
Camaron de Paris
Camaron de Palermo

o de algun otro pais...
C E F F# G F G
e|---------------------------------------------------|
B|---------------------------------------------------|
G|---------------------------------------10----------|
D|---------------------------------------10--10------|
A|--------------------------7--8--9--10--8---10------|
E|-----------------------8-------------------8-------|