Neutro

La Vela Puerca

Genero: Rock

Tablatura

INTRO: (x2)

Bm D A
e/---------------------------------------------
B/---------------------------------------------
G/--7--7--7--7--7--7--7--7--7--7--7--6--6--6--6
D/--9--9--9--9--9--9--9--7--7--7--7--7--7--7--7
A/--9--9--9--9--9--9--9--5--5--5--5--7--7--7--7
E/---------------------------------------------

.(empieza cn las mismas notas q la intro, además hay una
guitarra que hace un pequenio RIFF)

Bm D A
e/-7-7 ¿Soñaste alguna vez, volar mejor que hoy
Bm D A
Sin nada que preocuparte? e/-7-7
Bm D A
¿Soñaste al ganador, y a toda su quermés
Bm D A
Limando un ego gigante?

RIFF1: (es cn mucha distorsión y suena muy x debajo)

e/-------------
B/----3----5p3-
G/--4---4------

Bm D A
e/-7-7 Después repetirás, lo que aprendiste ayer
Bm D A
Floreándote en tu linaje..
Bm D A
Frágil alcurnia que, no duda en rezongar
Bm D A
Si vas tomando otro viaje.. RIFF1
Bm D A
Lloraste alguna vez, fingiendo no ser vos
Bm D A
Y te agarro la cordura..
Bm D A
Jugando a ser normal, y a no perder el tren
Bm D A
Cerrando en alza la usura..

Em D A Em
¿Cómo perdiste la preciada figura de ser, lo que podías
D A
ser?

Em D A Em
Y malgastaste lo poquito que pudiste ver, con el otro
D A
Deber..

C G D A
¡y ahora decidís, que caminas feliz
C G D
Y no te cree ni el dolor!..
C G D A
Decís que te agobias y ya no disparas
C G D
Neutro de todo calor..

Trompeta:
Bm D A Bm D A Bm D
e/---------------------------------------------------------
B/---------------------------------------------------------
G/-----6--7-----------------------7---6---------6-7--------
D/--9--------9--7--5-4----4-------------------9------9--7--
A/----------------------7----------------------------------
E/---------------------------7-7---------------------------
A Bm D A
/------------------------
/------------------7---6-
/--5-4----4---9-9--------
/-------7----------------
/------------------------
/------------------------

Miraste alguna vez, de frente la pasión
Y no le diste la vida RIFF1
Te hablaban de ambición, y de la ingenuidad
Dejando tu alma partida.. RIFF1
Algún amigo habló y en vano se atrevió
A despertar tu demencia..
Sana potencia que, no duda en revolcar
Si no alimenta inocencia...

Y el bucanero que existía en tu mente se ahogo
Perdiendo su galeón..
Y aquella chispa que encendía tu sol se extinguió
Se te bajo el telón.

C G D A
¡y ahora decidís, que caminas feliz
C G D
Y no te cree ni el dolor!..
C G D A
Decís que te agobias y ya no disparas
C G D
Neutro de todo calor..
C G D A
¡y ahora decidís, que caminas feliz
C G D
Y no te cree ni el dolor!..
C G D A
Decís que te agobias y ya no disparas
C G D
Neutro de todo caloooooooooooooorrrrrr..

Trompeta:
Bm D A Bm D A Bm D
e/---------------------------------------------------------
B/---------------------------------------------------------
G/-----6--7-----------------------7---6---------6-7--------
D/--9--------9--7--5-4----4-------------------9------9--7--
A/----------------------7----------------------------------
E/---------------------------7-7---------------------------
A Bm D A
/------------------------
/------------------7---6-
/--5-4----4---9-9--------
/-------7----------------
/------------------------
/------------------------
Bm D A Bm D A Bm D
e/---------------------------------------------------------
B/---------------------------------------------------------
G/-----6--7-----------------------7---6---------6-7--------
D/--9--------9--7--5-4----4-------------------9------9--7--
A/----------------------7----------------------------------
E/---------------------------7-7---------------------------
A Bm D
/---------------------
/------------------7--
/--5-4----4---9-9-----
/-------7-------------
/---------------------
/---------------------