Mi Semilla

La Vela Puerca

Genero: Rock

Tablatura

Intro

Estrofa

0:38
(A) Violín: E)-0--2-4-2--5-4-0--0-2
B)---------------------

Estrofa

1:12 (A)

Estribillo

1:33
Solo de e)-7-9-7--7-9-7--7-9-7---------7-9-7| x2
Violín: B)---------------------10-9-10------|

e)-7-7-9-7-12-11-9-7-9-7-7-------7-7-9-7--|x2
B)-------------------------10-10----------|


1:51
e)------------|------------------------------7-9-7-|
B)-10-10-10-9-|-----------7-9-10-9-----------------| x2
G)------------|-9-9-9-9-9-----------9-9-9-9-9------|

2:01
e)-9-11-12--12-12-11-11-11-9-9-7-------7--7-9-7----7-7------------------|
B)-------------------------------10-10----------10-----10-9-10-9-7-5----|

Estribillo

2:31
Solo de e)---------------------| ------------------
Violín 2: (B) B)-5-7-9--7-5------5---|x2 -----5------------
G)------------6--6---4-| -4-6---6-4-2-4----
D)---------------------| ------------------

e)------------------------12-11--------------
B)-5-7-9--7-9-10--9-10-12-------12-10-10/12--
G)-------------------------------------------
D)-------------------------------------------

e)-------------------------------------------
B)-5-7-9--7-9-10--9-10-12--12-10-9-10-9-7-5--
G)-------------------------------------------
D)-------------------------------------------

e)-7-9-7--7-9-7--7-9-7---------7-9-7| x2 -7-12-11-9-7----7--------------|
B)---------------------10-9-10------| -------------10---10-9-10-9-5--|

3:07
Final: E) -7-12-11-9-7----7--------------|
B) -------------10---10-9-10-9-5--|


ES TODO LO QUE HACE EL VIOLIN EN EL TEMA PERO PARA LA VIOLA...
MUCHAS GRACIAS A TODA LA GENTE DE BUEN DIA, (CHIPPY AGUS LUKS MATI
BRUNITO PABLO Y PAU IVA AGUS FLOR…) SE LOS QUIERE MUCHO...
NADA MAS, CUALQUIER DUDA O CORRECCION MANDEN UN MAIL gamba_23@hotmail.com
SUERTE... Y AGUANTE LA VELA EL PITY Y TODO EL ROCK AND ROLL...