Haciendose Pasar Por Luz

La Vela Puerca

Genero: Rock

Tablatura

bueno este tema, para mi es uno de los mejores

el solo si lo saco, lo subo dsp..
por ahora subo esto para q podamos tocar algo


Intro:

e||-------------------------------------|
B||------------------8/9----------------|
G||--x-9--6--4----x--8/9--6--4----------|
D||--x-9--6--4----x--x/x--6--4----------|
A||--x-7--4--2----x--6/7--4--2----------|
E||-------------------------------------|

esta parte es solo una pasada..
suena bien...pero es muy rapidito
si no les gusta cambienlo..
el hecco es q hace D# - E

e||-------------------------------------|
B||-------------------------------------|
G||--x-9--6--4----x-9--6--8-------------|
D||--x-9--6--4----x-9--6--8-------------|
A||--x-7--4--2----x-7--4--6-------------|
E||-------------------------------------|

--------|
e||-------------------------------------| |
B||-------------------------------------| |
G||-------1/4--4-6-6/9-8-6-4------------| |
D||--2--4-------------------------------| |
A||-------------------------------------| |
E||-------------------------------------| |
| x2
e||--------------------------------------------| |
B||--------------------------------------------| |
G||--1-2/5e(6)-4-2-1---------5e(6)-4-2-1-------| |
D||------------------4-2-----------------4-2---| |
A||--------------------------------------------| |
E||--------------------------------------------| |
|
--------|
el 5e(6) significa que hay q estirar el 5
hasta q suene como el 6


(*) e||-------------------------------------|
B||--8e-7-5-7---2-5-8e-8--7-5-4~--------|
G||-------------------------------------|
D||-------------------------------------|
A||-------------------------------------|
E||-------------------------------------|

(*)2 e||--5------5-------------7------------|
B||----4------4------------------------|
G||------5------5-/6--/8---------------|
D||------------------------------------|
A||------------------------------------|
E||------------------------------------|


E B
El dia que se apague el sol

C#m G#
y cierren las cortinas

A E
cuando el suelo que pisas

C#m B
se te mueva de verdad



[mismos acordes]

CUando ya no planten mas
y nadie se haga cargo
(*)de los rios y del mar
de la mugre del lugar



[mismos acordes]

Vas a poder pensar quien sos
que hicistes, que te hicieron
Y que hacemos pa´ arreglar
C#m B B7
lo que rompen los demas



E F# G# A
Y yo te digo que no da

E F# G# A
y yo te digo y no te miento

E F# G# A
y yo te digo que no da

E F# G#
y yo te digo que



[mismos acordes]
Los duenios de la realidad
son pocos y dan miedo
(*2)Dispuestos a esclavizar
los del campo en la ciudad


[mismos acordes]
Haciendose pasar por luz
son cabezas oscuras
dicen que son de verdad -- aca pueden repetir
y son pura enfermedad C#m y B


[mismos acordes]
Vas a poder pensar quien sos
que hicistes, que te hicieron
Y que hacemos pa´ arreglar
lo que rompen los demas

[igual q la otra vez]
Y yo te digo que no da
y yo te digo y no te miento
Y yo te digo que no da

E-C#m
tengo que aguantar ese momento




repite la intro, pero al final hace esto:

e||--------------------------------------------|
B||--------------------------------------------|
G||--1-2/5e(6)-4-2-1---------5e(6)-4-2--11-9---|
D||------------------4-2-----------------------|
A||--------------------------------------------|
E||--------------------------------------------|


SOLO


[igual q la otra vez]
Y yo te digo que no da
y yo te digo y no te miento
Y yo te digo que no da

E-C#m-D#
tengo que aguantarmelo



E F# G# A E
Hay algo que no puede ser

F# G# A
y sin embargo lucha

E F# G# A E
Hay algo que no puede ver

F# G# A
y sin embargo escucha



E F# G# A E
lalalalalallalalala




FINAL: B A B A-G#-G F#-F E



--------
espero que los difruten...cualquier cosa o correcion
ya saben... manden un mail o la corrigen directamente..

"vamooo vamoo la vela de mi corazooonnn uouooo"