Escobas

La Vela Puerca

Genero: Rock

Tablatura

Ghost Note en C con cejilla y un C con cejilla
Intro:
5ta---12-12-12-12-11-11-11-11-9-9-9-7--7-7-7-
5-5-5-5-4-4-4-4-2-2-2-0---12-12-12-11-11-11-11-9-9-9-
7--7-7-7-10-10-10-10-9-9-9-9-5

En 5ta cuerda :Mi/La

A
----0-------0-----
----2-------2-----
----2-------2-----
----2-------2-----
-0-------0--------
------------------
Hacer este ritmo con A y con estos acordes: E-G-D
Repetir 3 veces con acordes normales y 4 veces con
acordes con cejilla.

A E
De quién será la escoba que me lleve a ese
G D
lugar normal que ya no puedo estar
A E
La última vez volé tanto que pronto me
G D
pase y no se volvi al mismo panal

A E
Me desperté sudado y decidi pasar a
G D
visitar a mi colega Juan
A E
Cuando llegue me dijo hay que linda que estas
G D
hoy mujer decime a donde vas


A G A
Le respondi que ahora mi escoba no quiere volar

A G A
Y que toda esa gente mala no me quiere oir

A G A
Le pregunté si me prestaba la de ese lugar

A G A
Me contestó sinceramente no quiero morir



-0--0-2-0----------0-------0---
--2-------0-2-3--3---3-2-3-----
-----------------------------2-
-------------------------------
-------------------------------
-------------------------------

-0---0-2-0--------------------
---2-------0-2-3--3-2-0-------
------------------------2-----
------------------------------
------------------------------
------------------------------

A E
Que siglo es hoy pregunté por costumbre y para
G D
que reloj si siempre son las diez
A E
Total yo se que hoy de noche es la fiesta y para
G D
que saber donde deje los pies

A G A
Me dicen todos que nunca podré salir de aquí

A G A
Pero no saben que el secreto vuelve a estar en paz

A G A
Y arranca sola mi cabeza y todo es para mi

A G A
Y ese momento iluminado dice donde estas

B D A
Es algo normalmente anormal -------------
---0-2-3-2---
-2---------2-
-------------
-------------
-------------

B D A
Y eso aqui nadie lo quiere entender -2-0---0-------
-----3---3-2---
-------------2-
---------------
---------------
---------------

B D A
Yo solo pido ya no llorar más -------------
---0-2-3-2---
-2---------2-
-------------
-------------
-------------
B D A G D
Y eso ni yo lo quiero sabe eee eeer

INTRO

A E
No se porque siempre se pone oscuro y
G D
escuchó esa voz que siempre me habla bien
A E
Pa\' mi que es esa bola brillante que una
G D
vez al mes visita mi kermes

A E
De quién será la escoba que me lleve a ese
G D
lugar normal que ya no puedo estar
A E
La última vez volé tanto que pronto me
G D
pase y no se volvi al mismo panal


A G A
Me dicen todos que nunca podré salir de aquí

A G A
Pero no saben que el secreto vuelve a estar en paz

A G A
Y arranca sola mi cabeza y todo es para mi

A G A
Y ese momento iluminado dice donde estas

B D A
Es algo normalmente anormal -------------
---0-2-3-2---
-2---------2-
-------------
-------------
-------------

B D A
Y eso aqui nadie lo quiere entender -2-0---0-------
-----3---3-2---
-------------2-
---------------
---------------
---------------

B D A
Yo solo pido ya no llorar más -------------
---0-2-3-2---
-2---------2-
-------------
-------------
-------------
B D A G D
Y eso ni yo lo quiero sabe eee eeer
D A G D
Ni sabe eee eeer


5ta---12-12-12-12-11-11-11-11-9-9-9-7--7-7-7-5-5-5-5-
4-4-4-4-2-2-2-0---12-12-12-12-11-11-11-11-9-9-9-7--7-
7-7-(Ahora lento)-5-4-2-4-2-4-2-4-2-4-LaM(POWER CHORD)



AGUANTE LA VELA, LOS BUITRES, ESTÓMAGOS, Y TODO EL
ROCK URUGUAYO.

P.D.:
-POWER CHORD: Power chord es tocar la 6ta y 5ta cuerda
en los acordes con cejilla.

-GHOST NOTE: Es levantar un poco la mano izquierda si
se es diestro (y vice-versa) haciendo contacto con
las cuerdas pero sin que salga el sonido.


------------------------------------------------------
LA TRANSCRIPCIÓN DE ESCOBAS FUE UNA PRODUCCIÓN DE
SEBASTIÁN FEIRRÉS Y RODRIGO LUJAMBIO
------------------------------------------------------