En Vela

La Vela Puerca

Album: Normalmente Anormal
Genero: Rock

Tablatura (Ver letra)

Bueno viejas este es el tema en vela, tienen qe practicarlo
mucho pa qe salga.

Intro x4:
(1)
e|------------------------------|
b|-----5----5-------3-----3-----|
g|---4----4---4---4-----4---4---|
d|-2----2-------2-----2-------2-|
a|------------------------------|
E|------------------------------|

*Nota: despues de eso hace un pequeño punteo
parecido a esto. Lo qe hace es, con el indice
presionas el 2 y ahi con el fackiung (jaja)
golpeas el 3 sin soltar el 2 y dsp le mandas
el 4.
e|------------------------------|
b|--2h32------------------------|
g|------4-----------------------|
d|------------------------------|
a|------------------------------|
E|------------------------------|

(1)
Levantáte del suelo,
apagá ese cigarro
sentadito en la arena,
esperando un milagro,
y de paso se puso violento,
su boca rota no pudo encarar,
y en el cielo rezongan los truenos vienen para acá.

(2)
A E
No me echen
A E
que yo no lo dije esta vez
A E D A E
no veo nada y tengo gas en la piel.

(1)
Resbalo por la acera,
se ríe por adentro
ya no tiene bandera
ya no tiene silencio
día tras día va enloqueciendo
perdiendo toda su lucidez
y con el sol en la cara germina y les grita otra vez

A E A
Sabes quien es y no lo ves
Sudas, lloras despues volves.

*Repite el intro como 10 veces ma o menos.*

(2)
No me echen
que yo no lo dije esta vez
no veo nada y tengo gas en la piel
D-A-E
y mil delirios de amor
D-A-E
y un fino armado después
A-E x4 E
de que aparezca mi sol

*Puede qe en esta estrofa los acordes
no coincidan pero suena bien igual.
(2)
Sabes quien es y no lo ves
sudas, llorás despues volvés
volar, bajar y para qué
correr a quien va sobre tus pies
no preguntes porque si ya no me miras

Bueno viejas es lo mas parecido qe la pude hacer xD
espero qe les sirva

Aguante la vela y la renga !! xD matyy