En El Limbo

La Vela Puerca

Genero: Rock

Tablatura

Esta es la base de la intro y de las 2 primeras estrofas

Dm F C/E Cmsus4/Eb

E-------1-----------1-----------0-----------1-----|
B-----3---3-------1---1-------1---1-------1---1---|
G---2-------2---2-------2---0-------0---0-------0-|
D-0-----------3-----------2-----------1-----------|
A-------------------------------------------------|
E-------------------------------------------------|


Hoy me siento que puedo hacer todo,
hoy la luna me invita a seguir,
y ella está, sentadita en el Limbo,
diciéndome adónde no hay que ir.

Ciegamente confío en su mano,
y mi sol ahora empieza a seguir;
que me atrevo a voltear los gusanos,
que no dejan crecer mi jardín.


Bb C Dm F

E--------1------------0-----------1-------------1-----|
B------3---3--------1---1-------3---3---------1---1---|
G----3-------3----0-------0---2-------2-----2-------2-| X 2
D---------------------------0-------------------------|
A-1------------3--------------------------------------|
E----------------------------------------1------------|

Y la vida se acuesta a mi lado
Y con ella me empiezo a reir


Bb C F C/E Dm C G

E--------1------------0-----------------------------------------3---------|
B------3---3--------1---1-------1------1------3-------1-------0---0-------|
G----3-------3----0-------0---2------0------2-------0-------0-------0-----|
D-----------------------------------------0-------------------------------|
A-1------------3---------------------------------3------------------------|
E---------------------------1------0---------------------3------------3---|


Y ahora sueño que voy caminando por todas las cosas que faltan vivir


C Bb Am Bb

E--------0------------1------------0------------1--------|
B------1---1--------3---3--------1---1--------3---3------|
G----0-------0----3-------3----2-------2----3-------3----| X 2
D--------------------------------------------------------|
A-3-------------1------------0------------1--------------|
E--------------------------------------------------------|


y sentir, yo y mi jardin



Lo que viene es sin el punteo. Los acordes del rasgueo son:

Dm - F - C - Cm

Que barato decir que es extraño
no tocarte y sentirte hoy aqui
menos mal que ya entiendo mi tiempo
y lo espero sin mucho pedir

Mis amigos revuelven la olla
donde puse mi mejor perfil
y me sobra con verlos bailando
festejar para sobrevivir



Bb C Dm F
Y la vida se acuesta a mi lado
Bb C Dm F
Y con ella me empiezo a dormir
Bb C F C/E Dm C G
Y ahora sueño y me voy alejando de todas las cosas que supe sufrir
C Bb Am Bb C Bb Am Bb
Y sentir, yo y mi jardin
C Bb Am Bb C Bb Am Bb
Y sentir, yo y tu jardin


Dm - F - C - Cm (x8)


Bb C Dm F
Y la vida se acuesta a mi lado
Bb C Dm F
Y con ella me empiezo a morir
Bb C F C/E Dm C G
Y ahora sueño y me voy alejando de todas las cosas que supe sufrir
C Bb Am Bb C Bb Am Bb
Y sentir, yo y mi jardin
C Bb Am Bb C Bb Am Bb
Y sentir, yo y tu jardin


Dm - F - C - Cm un par de veces... y termina...



Espero que les sirva y que entiendan tanto el punteo como los momento
donde cambian los acordes.
Esta claro que escuchando el tema es mas facil de hacer los cambios
y el rasgueo.

Saludos a todos.