El Señor

La Vela Puerca

Genero: Rock

Tablatura

E

Am G F
La última joda la paga el “Señor”
Am G F
que le divierten las penas ajenas de hoy.
Am G F
La última moda la impone el “Señor”
Am G F
marcándome la tendencia demencia de hoy.

Am G C D
El tiene todo lo que hoy precisás
Am G F
y los infantes se parten el alma por más.
Am G C D
El te cautiva mostrando a su dios
Am G F E
que no es el tuyo pero juega para los dos.


Am G F
La última vida la pide el “Señor”
Am G F
y te perdona lo malo de tu corazón.
Am G F
La última miga la roba el “Señor”
Am G F
alimentando su rabia y su falta de amor.

Am G C D
Esa clientela de ciega se da
Am G F
y va tragando la mierda de toda cuidad.
Am G C D
Ese aparato te invita a morir
Am G F E
y te reduce a lo simple de nunca sufrir.


F
Y es así:
C
o te rebelás,
F
o te consumís,
C F
cerrando los ojos no sirve aplaudir.
C F
La hora del miedo parece llegar
E
y aquí no vale pensar...

C (x8)
C - A# - Dm - F
(SOLO*)

Am G F
Y cuándo quieras soñar
Am G F
sólo habrá pesadillas,
Am G F
o cuando quieras volar
Am G F (PAUSA)
quedarás de rodillas.

Am G C D
Ese camino te exige mentir
Am G F
o te reduce a lo triste de sobrevivir.
Am G C D
Esa montaña se va a derrumbar
Am G F E
encima de todo aquél que te quiera dañar.

F
Y es así:
C
o te rebelás,
F
o te consumís,
C F
cerrando los ojos no sirve aplaudir.
C F
La hora del miedo parece llegar
E
y aquí no vale pensar...

C - A# - Dm - F
(SOLO*)
D






*

e||---------------------------------------------|
B||---------------------------------------------|
G||----------------2-0--------------------------|
D||----2-3---2-3-0-----3-2-0---2-3---2-3-0--/3~-|
A||--3-----1-----------------3-----1------------|
E||---------------------------------------------|

e||--------------------------------------------------||
B||--------------------------------------------------||
G||---------------------2-0--------------------------||
D||----2-3---2-3-0--2-3-----3-2-0---2-3---2-3-0--/3~-||
A||--3-----1----------------------3-----1------------||
E||--------------------------------------------------||


El acorde de "pedromagnus@hotmail.com" esta
perfecto(te felicito chabon).
Vi que no puso el solo así que trate de sacarlo
y lo saque no se si bien eso me
lo dicen ustedes a través del voto.
Es fácil tocarlo inténtenlo que es "pan comido" jejejeje
Cualquier cosa manden mail.