El Ojo Moro

La Vela Puerca

Genero: Rock

Tablatura

Intro:

e|-------------------|
b|-------------------|
g|-------------------|
d|-------------------|
a|------------------7|
E|-5-7-9-10-9-7-5-9--|


Larga vida al ojo moro...

e|----------------|
b|----------------|
g|----------------|
d|----------------|
a|-7-7-7-4-5-4----|
E|-------------7-5|

Si se apaga dale luz...

e|--------------|
b|--------------|
g|--------------|
d|-----------4--|
a|-7-7-7-4-5---7|
E|--------------|

por tirano se merece
que lo cuelguen en la cruz

Suenan tiros en La Habana
pero es mejor no correr
si te arrancan los carteles
no te vayas a ofender

A A A...

A B C# D
e|-------------------|
b|-------------------|
g|-------------------|
d|-------------------|
a|------------------7|
E|-5-7-9-10-9-7-5-9--|

Venden vida descarable
para el nabo q está ahí
que seguro se la compra
pa\' decir que estuvo aquí

Vayan sudando la gota
Porque viene, a lo mejor,
vayan pelando las sedas
que La Vela ya llegó

A A A...

A D
No más corrupción en la tierra
A D
no más tiranía en el cielo
A D
no más matanza de colores
A D E
no más intereses ajenos

aca la trompeta hace esto...

A B C# D
e|--------------------------|
b|--------------------------|
g|--------------------------|
d|--------------------------|
a|--------------------------|
E|-5-7-9-10-9-7-5-5-0-5-9-10| x4

B C# D E
e|------------------------|
b|------------------------|
g|------------------------|
d|------------------------|
a|-----5-7-5-----------5-7|
E|-7-9-------9-7-7-0-7----| x3

B C# D E C# D E
e|------------------------------|
b|------------------------------|
g|------------------------------|
d|------------------------------|
a|-----5-7-5-----------5-7-4-5-7|
E|-7-9-------9-7-7-0-7----------|

mientras q dice...

Los pueblos de alma viril
saltan en sangrientas etapas
se reincorporan en Chiapas
los mártires de Brasil
las fieras a su cubil
los hombres hacia la aurora
A legión libertadora
no se rinde ni se aplasta
y cuando se grita basta
inaplazable es a la hora

Venden vida descarable
para el nabo q está ahí
que seguro se la compra
pa\' decir que estuvo aquí

Vayan sudando la gota
Porque viene, a lo mejor,
vayan pelando las sedas
que La Vela ya llegó

A A A...

A D
No más corrupción en la tierra
A D
no más tiranía en el cielo
A D
no más matanza de colores
A D E
no más intereses ajenos

ahora viene un solo extraño q no entendi...

A B C# D
e|--------------------------|
b|--------------------------|
g|--------------------------|
d|--------------------------|
a|--------------------------|
E|-5-7-9-10-9-7-5-5-0-5-9-10| x2

B C# D E
e|------------------------|
b|------------------------|
g|------------------------|
d|------------------------|
a|-----5-7-5-----------5-7|
E|-7-9-------9-7-7-0-7----|

B C# D E C# D E
e|------------------------------|
b|------------------------------|
g|------------------------------|
d|------------------------------|
a|-----5-7-5-----------5-7-4-5-7|
E|-7-9-------9-7-7-0-7----------|

G