El Duende

La Vela Puerca

Genero:

Tablatura

Intro: repite esto
e------------------------------------------
S------------------------------------------
G------------------------------------------
D--------0--1--0----------0--1--0----------
A 0--3-------------0---3------------3---0--
E------------------------------------------

Em G Am
Vino a avisar se lo lleva la esperanza por ahí
Em G Am
A navegar por el mundo donde no tiene que hablar
G Em Am
Baja cuando todos ya se están yendo a dormir
Em G Am
En un rincón de la noche su canción lo va a esperar

E G Dm Am
Llena de humo el corazón, con el profeta, con la bruja y con el bufón
Am G Dm C
Que hoy es especial, el va a esperar a todo el que quiera entrar
Am G Dm Am
Que hoy nadie va a sobrar
Am G Dm Am
Porque hoy nadie va a sobrar

Vuelve a repetir esto
e------------------------------------------
S------------------------------------------
G------------------------------------------
D--------0--1--0----------0--1--0----------
A 0--3-------------0---3------------3---0--
E------------------------------------------

Em G Am
De madrugada cuando se les tranca su motor
Em G Am
Pasa un hada y congela miradas en el bar
G Em Am
Solo a él le queda su pedazo de calor
Em G Am
Y su razón en medio de los escombros va a encontrar

E G Dm Am
Llena de humo el corazón con el demonio, con el sabio y el camaleón
Am G Dm
Él no sabe escalar para aprender se da contra lo hay
Am G Dm Am
Hueso duro de roer
Am G Am
Que mañana puede volver


Termina como empieza: repitiendo esto
e------------------------------------------
S------------------------------------------
G------------------------------------------
D--------0--1--0----------0--1--0----------
A 0--3-------------0---3------------3---0--
E------------------------------------------

arriba la vela!