El Bandido Saltó De Mata

La Vela Puerca

Genero: Rock

Tablatura

Intro:     F  Em G Am        G Am
e|--1---0---3---5--5---5---3---5--|
B|--1---0---3---5--5---5---3---5--|
G|--2---0---4---5--5---5---3---5--|
D|--3---2---5---7--7---7---5---7--|
A|--3---2---5---7--7---7---5---7--|
E|--1---0---3---5--5---5---3---5--|

Am G Am
e|--5--5-x-5-x--7--7-x-7-x--8---8--x-8---
B|--5--5-x-5-x--8--8-x-8-x--10--10-x-10--
G|--5 -5-x-5-x--7--7-x-7-x--9---9--x-9---
D|--7--7-x-7-x--9--9-x-9-x--10--10-x-10--
A|---------------------------------------
E|---------------------------------------
G Am G
e|--7--7-x-7-x--12--12-x-12--12--|
B|--8--8-x-8-x--13--13-x-13--12--|
G|--7--7-x-7-x--14--14-x-14--12--| x2
D|--9--9-x-9-x--14--14-x-14--12--|
A|-------------------------------|
E|-------------------------------|


Am G
tene cuidado porque te mata
Am G
ese bandido salto de mata
Am G
si me lo encuentro yo en esta esquina
Am G
salgo corriendo por la avenida

Am Em
e|--12--12-x-12--12--|
B|--13--13-x-13--12--|
G|--14--14-x-14--12--| x2
D|--14--14-x-14--12--|
A|-------------------|
E|-------------------|

Am G
y si te pesca dandole cuerda
Am G
o ayudando a la gente enferma
Am G
te va a dar palo hasta que se borre
Am G
todo ese rollo sobre los pobres

Y ahi!



Puente: F Em G Am G
e|--1---0---3---5--5-x-5-x--3--3-x-3---
B|--1---0---3---5--5-x-5-x--3--3-x-3---
G|--2---0---4---5--5-x-5-x--4--4-x-4---
D|--3---2---5---7--7-x-7-x--5--5-x-5---
A|--3---2---5---7--7-x-7-x--5--5-x-5---
E|--1---0---3---5--5-x-5-x--3--3-x-3---

F Em G Am G Am
e|--1---0---3---5--5---5--3--5--|
B|--1---0---3---5--5---5--3--5--|
G|--2---0---4---5--5---5--3--5--|
D|--3---2---5---7--7---7--5--7--|
A|--3---2---5---7--7---7--5--7--|
E|--1---0---3---5--5---5--3--5--|


llegó del norte dandole lata
ese bandido salto de mata
toda la gente tiembla de miedo
cuando aparece con su sombrero

latinoamerica de colores
yo mas me acerco mas huelo olores
latinoamerica confundida
por los caminos llenos de vida



Puente: F Em G Am G
e|--1---0---3---5--5-x-5-x--3--3-x-3---
B|--1---0---3---5--5-x-5-x--3--3-x-3---
G|--2---0---4---5--5-x-5-x--4--4-x-4---
D|--3---2---5---7--7-x-7-x--5--5-x-5---
A|--3---2---5---7--7-x-7-x--5--5-x-5---
E|--1---0---3---5--5-x-5-x--3--3-x-3---

F Em G Am G Am
e|--1---0---3---5--5---5--3--5--|
B|--1---0---3---5--5---5--3--5--|
G|--2---0---4---5--5---5--3--5--|
D|--3---2---5---7--7---7--5--7--|
A|--3---2---5---7--7---7--5--7--|
E|--1---0---3---5--5---5--3--5--|


Solo: Am G F Em
e|------------------------------------------
B|------------------------------------------
G|--------12h14----------------------12-----
D|--12h14-------15-15p14p12h14-12/14----14--
A|------------------------------------------
E|------------------------------------------
Am G F Em
e|-----------------------------------------------------
B|---12-13-15-12h13p12---12----------------------------
G|--12----------------14----14b15r14-12-14----12-12h14-
D|-----------------------------------------14----------
A|-----------------------------------------------------
E|-----------------------------------------------------
Am G F Em
e|------------------------------15------------------------
B|-------------------12-13--15b17-17r15-12-15h12----------
G|--------12-12----------------------------------14b15r14-
D|--12h14-------14----------------------------------------
A|--------------------------------------------------------
E|--------------------------------------------------------
Am G F Em
e|-------------------------------------------------------------|
B|-------------------------------------------------------------|
G|--14p12----12h14-------12-12----------------------------12---|
D|--------14-------12h14-------14h12-14-15p14p12h14-12/14---14-|
A|-------------------------------------------------------------|
E|-------------------------------------------------------------|





Am G
si un latino se esconde
F
me dicen a donde
Em
para que lo pueda traer

Riff: e|--------------------------|
B|--5-6-5-8-6-5---5-------5-|
G|--------------7-----5h7---|
D|------------------7-------|
A|--------------------------|
E|--------------------------|

si el bandido aparece la gente enloquece
no seas el primero en caer
(Riff)
gente bien gente humilde cansada de palo
no vamo a dejarno arrastrar
(Riff)
no te asustes mujer no te ponga a correr
vida mía esto va a terminar

Final:
F Em G Am G Am
e|--1---0---3---5--5---5--3--5--|
B|--1---0---3---5--5---5--3--5--|
G|--2---0---4---5--5---5--3--5--|
D|--3---2---5---7--7---7--5--7--|
A|--3---2---5---7--7---7--5--7--|
E|--1---0---3---5--5---5--3--5--|

Nota:
En la parte cantada la guitarra líder hace este punteo una y otra vez

e|-------------------------------------|
B|-------------------------------------|
G|-------------------------------------|
D|--------7-7---5-5--------7-7---5--5--|
A|--5-6-7-----7------5-6-7-----7-------|
E|-------------------------------------|

BICHO!