Dice

La Vela Puerca

Album: A Contraluz
Genero: Rock

Tablatura (Ver letra)

Corrección de la versión existente.

Intro
C G
e----------------------------------------------------
b-----------1--------1---------------3---------------
g--------0-----0-------------------0-----------------
d------2----------2--------------0-------------------
a----3-----------------------------------------------
e------------------------------3---------------------

C G
I)Dice que no quiere ir
se quiere quedar.
C G
Dice que no quiere ver
quiere tocar.


I)Dice que no quiere hablar
quiere escuchar.
Dice que no quiere ser
quiere intentar.

I)Dice que no quiere oir
quiere patear.
Dice que no quiere estar
quiere arrancar.

I)Dice no querer reir
quiere llorar.
Dice no querer saltar
quiere volar.

II)D Re sus4
Si no pierde la cabeza
G9 G
no puede soñar.
D D sus4
Si no escupe su demencia
G
no puede bajar.
D D sus4
Si no encuenra la manera
G9 G
se va a destruir.
D D sus4
Si no va en su pulgadera
G
se quiere morir.

I)Dice que no quiere dar
quiere robar.
Dice que no quiere odiar
quiere matar.

I)Dice no querer dormir
quiere roncar
Dice no querer sufrir
quiere soltar

Em D C
III)De nada sirve si no quiere si no va a tratar
Em D C
pero no importa si convence a los demas

III)Llego su hora y no le vale solo discutir
ahora te muerde y solo la quiere pudrir

I)Dice que no quiere entrar
quiere safar.
Dice que no quiere estar
quiere voltear.

I)Dice no querer crear
quiere soñar.
Dice no querer sentir
quiere aplastar

II)si no pierde la cabeza...

I)Dice que no quiere paz
quiere moquear.
Dice que no quiere show
quiere brillar.

I)Dice que no quiere mas
quiere estallar.
Dice que no quiere andar
quiere estrellar.

III)se repite 3 veces

e-0--0--3--5--3---0--0--0--3--5--3--5--3---0--0--3--5--3--0
b--------------------------------------------------
g-------------------------------------------------

e-0----0-3---7-8-10--1-8-10-12-10-0-0-0-3-5-7-----------
b---3-----------------------------------------8---------
g-----------------------------------------------9-7-9-7-



Acá hice algunos cambios en el estribillo q me pareció
más cerca del original de La Vela; espero q les guste
y lo toquen.

Cualquier duda escriban a (cspalvier@hotmail.com)
Y.. ARRIBA EL ROCK NACIONAL!!!!

Guille