De No Olvidar

La Vela Puerca

Album: De bichos y flores
Genero: Rock

Tablatura (Ver letra)

Intro:

F C F C
e --5-8-5-------- --5-8-5------
B ---------8-6-5- --------8-6-5
G --------------- -------------
F C G C
e --5-8-5----- --------------------
B --------8-8- --5-5-8-6-6-----6--5
G ------------ ------------7-7-----
F C
e ------0-3-2-1- ------2-1-0
B ----1--------- ---0-3----- x2
G --0----------- -0---------
F
e -----0-1
B -1-2----
G --------

1)

F C
Y tu recuerdo
F C
Permanecido
F C G
Me está diciendo, me está diciendo
C
Que no hay olvido

Breve es mi canto
Que no te olvida
Piel y latido, piel y latido
Sombra encendida
2)

G C
Siento en el alma
G C
Como puñales
F C G
Filos metidos, filos metidos
C G C
En manantiales
1)
Ya no te espero
Nada me explico
Madero muerto, madero muerto
Te crucifico

A qué has venido
Vuelve al pasado
Déjame solo, déjame solo
Quién te ha llamado
2)
Siento en el alma
Como puñales
Filos metidos, filos metidos
En manantiales

Acá arreglé algunos detalles. Por cualquier cosa mi mail es
isa2702@gmail.com