La Policía

La Uvi

Genero:

Tablatura

1|------------------------------------------------------------------------
2|------------------------------------------------------------------------
3|------------------------------------------------------------------------
4|-0-5-------------0-5-------------0-5-------------0-5-------------0-5----


1|---------------------------------------------------------------------
2|---------------------------------------------------------------------
3|---------------------------------------------------------------------
4|-5-5-5-5-5-5-5-5-5-5-5-5-5-5-5-5-5-5-5-5-5-5-5-5-5-5-5-5-5-5-5-5-----


1|---------------------------------------------------------------------
2|---------------------------------------------------------------------
3|-----------------------------------------------------5-5-6-6-7-7-----
4|-5-5-5-5-5-5-5-5-5-5-5-5-5-5-5-5-5-5-5-5-5-5-5-5-5-5-----------------


1|---------------------------------------------------------------------
2|---------------------------------------------------------------------
3|-------------------------------------------------5-5-5-5-7-7-7-7---X2
4|-5-5-5-5-5-5-5-5-5-5-5-5-5-5-5-5-1-1-1-1-1-1-1-1---------------------


1|---------------------------------------------------------------------
2|---------------------------------------------------------------------
3|-------------------------------------------------5-5-5-5-7-7-7-7-----
4|-5-5-5-5-5-5-5-5-5-5-5-5-5-5-5-5-1-1-1-1-1-1-1-1---------------------
Yo me paso todo el día en un coche de policía

1|---------------------------------------------------------------------
2|---------------------------------------------------------------------
3|-------------------------------------------------5-5-5-5-7-7-7-7-----
4|-5-5-5-5-5-5-5-5-5-5-5-5-5-5-5-5-1-1-1-1-1-1-1-1---------------------
recorriendo todo Madrid en muy buena compañía.

1|---------------------------------------------------------------------
2|---------------------------------------------------------------------
3|---------------------------------------------------------------------
4|-5-5-5-5-5-5-5-5-5-5-5-5-5-5-5-5-1-1-1-1-1-1-1-1-1-1-1-1-1-1-1-1-----
¡No! ¡No!

1|---------------------------------------------------------------------
2|---------------------------------------------------------------------
3|-------------------------------------------------5-5-5-5-7-7-7-7-----
4|-5-5-5-5-5-5-5-5-5-5-5-5-5-5-5-5-1-1-1-1-1-1-1-1---------------------
¡No! ¡No!

1|---------------------------------------------------------------------
2|---------------------------------------------------------------------
3|-------------------------------------------------5-5-5-5-7-7-7-7---X4
4|-5-5-5-5-5-5-5-5-5-5-5-5-5-5-5-5-1-1-1-1-1-1-1-1---------------------


1|---------------------------------------------------------------------
2|---------------------------------------------------------------------
3|-------------------------------------------------5-5-5-5-7-7-7-7-----
4|-5-5-5-5-5-5-5-5-5-5-5-5-5-5-5-5-1-1-1-1-1-1-1-1---------------------
Me han quitado las cadenas, me han metido en más problemas,

1|---------------------------------------------------------------------
2|---------------------------------------------------------------------
3|-------------------------------------------------5-5-5-5-7-7-7-7-----
4|-5-5-5-5-5-5-5-5-5-5-5-5-5-5-5-5-1-1-1-1-1-1-1-1---------------------
han abierto mis maletas, no encontraron las recetas.

1|---------------------------------------------------------------------
2|---------------------------------------------------------------------
3|-------------------------------------------------5-5-5-5-7-7-7-7-----
4|-5-5-5-5-5-5-5-5-5-5-5-5-5-5-5-5-1-1-1-1-1-1-1-1---------------------
Yo me paso todo el día en un coche de policía

1|---------------------------------------------------------------------
2|---------------------------------------------------------------------
3|-------------------------------------------------5-5-5-5-7-7-7-7-----
4|-5-5-5-5-5-5-5-5-5-5-5-5-5-5-5-5-1-1-1-1-1-1-1-1---------------------
recorriendo todo Madrid en muy buena compañía.

1|---------------------------------------------------------------------
2|---------------------------------------------------------------------
3|---------------------------------------------------------------------
4|-5-5-5-5-5-5-5-5-5-5-5-5-5-5-5-5-1-1-1-1-1-1-1-1-1-1-1-1-1-1-1-1-----
¡No! ¡No!

1|----------------------------------------------------------------------
2|----------------------------------------------------------------------
3|-------------------------------------------------5-5-5-5-7-7-7-7------
4|-5-5-5-5-5-5-5-5-5-5-5-5-5-5-5-5-1-1-1-1-1-1-1-1-----------------5----
¡No! ¡No! ¡Aaahhh!


Aquí os dejo "La Policía" Para mi es la mejor canción de La UVI.
Es muy sencilla.
Agur!