La Casa De Los Sueños

La Unión

Genero:

Tablatura

Acordes no convencionales:
EADGBe
C/E : 030050
G/B : 020030
Em/Eb : 021000

Intro(x2):

C/E G/B Em
e: -----0---------0-------0--0-|-0-----------
B: -------5-3-------3-----0--0-|-0-----------
G: ---0-------0-------0---0--0-|-0-----------
D: -------------0---------2--2-|-2---2^0-----
A: -3-------2-------------2--2-|-2-----------
E: -----------------------0--0-|-2-----------
C/E G/B Em/Eb
e: -----0---------0--------------------------
B: -------5-----3---3----------0-------------
G: ---0-------0-------0------0---------------
D: ------------------------1-----------------
A: -3-------2------------2-------------------
E: ------------------------------------------

C G/B Em
Tú estabas en el sueño
C G/B Em/Eb
junto al árbol del Edén
Am Bm
con el sentimiento cierto
C Em/Eb
de que todo andaba bien.

(Intro x1)

C G/B Em
Caminando entre los soles
C G/B Em/Eb
descubrí tu desnudez
Am Bm
en aquel preciso instante
C Em/Eb
abrí los ojos y no te volví a ver.

Em F
En la casa de los sueños
G Fm Cm F
hace tiempo vive una mujer
Am Bm
que parece tan distante
C Em/Eb
como cualquier estrella que puedas ver
Em-Em/Eb Em-Em/Eb Em-Em/Eb Em-Em/Eb
a miles de años luz, te veré...

(SOLO: Sobre Em-Em/Eb(x8) e Intro(x1))

C G/B Em
Escuchabas en silencio
C G/B Em/Eb
cuentos que yo inventé
Am Bm
y pensé en el momento
C Em/Eb
que ser feliz era cuestión de querer.

Em F
En la casa de los sueños
G Fm Cm F
hace tiempo vive una mujer
Am Bm
con sus manos va tejiendo
C Em/Eb
un manto que sólo ella puede ver;
Em F
en la casa de los sueños
G Fm Cm F
hace tiempo vive una mujer
Am Bm
que parece tan distante
C Em/Eb
como cualquier estrella que puedas ver.

Em-Em/Eb (x3) Em