Sigues Dando Vueltas

La Rue Morgue

Album: La Rue Morgue
Genero: Pop

Tablatura (Ver letra)

INTRO:

E||-1-1-3-2-2-7-3-|-1-3-5-7-7-|-10-3-3-2---|
B||-0-0-3-3-3-7-3-|-0-3-3-5-5-|--8-3-3-3---|
G||---------------|-----------|------------|
D||---------------|-----------|------------|
A||---------------|-----------|------------|
E||---------------|-----------|------------|


C D G
Quise mentir y aquí estoy
C D G
quise no ser y aún soy
C D G C G
quise volar con mis sueños pero tu silueta
D C
lo desbarató
C D G
Hace mil años tal vez
C D G
yo habría sido tu rey
C D G C G D C
luchar con muchos dragones y desde mi trono hacerte el amor
Am Bm Em
Dime donde quedo
Am Bm Em
ese extraño poder
C D G C G D C
Entrar por una ventana y nunca salirte de mi corazón
Em Bm Am D G
debo admitir que todo es muy distinto sin ti

G D C D G D C
Sigues dando vueltas en mi cabeza, dando vueltas (x2)
Em Bm Am D G
Debo admitir que todo es muy distinto sin ti

C D G
Que no me apaguen la luz,
C D G
que necesito encontrar,
C D G C G D G
buscar en cada rincón los pedazos del tiempo que vimos crecer
Am Bm Em
Y al fin de esto es igual
Am Bm Em
Alguno debe llorar
C D G C G D C
mentir por última vez y aunque sea un poquito para revivir.
Em Bm Am D G
debo admitir que todo es muy distinto sin ti

G D C D G D C
Sigues dando vueltas en mi cabeza, dando vueltas (x2)


E||------------------------------9-10-12----|
B||------------------------10-12------------|
G||----------------9-11-12------------------|
D||--------9-10-12--------------------------|
A||--10-12----------------------------------|
E||-----------------------------------------|


|--12h14-12---b8r7-5---|---5----5--|--9h10h9----------|
|----------------------|---5h7--5--|---------10-------|
|----------------------|-----------|------------9h7h6-|
|----------------------|-----------|------------------|
|----------------------|-----------|------------------|
|----------------------|-----------|------------------|


|----12h14-12---b8r7-5|-----5----5--|--(5)--5----5----||
|---------------------|-----5h7--5--|--(5)--5h7--5----||
|---------------------|-------------|-----------------||
|---------------------|-------------|-----------------||
|---------------------|-------------|-----------------||
|---------------------|-------------|-----------------||

A E D E A D E
Debo admitir que todo es muy distinto sin ti, dando vueltas.
A E D E Bm / E / A
Debo admitir que todo es muy distinto sin ti.



Nuevamente saludos para Claudia Iturriaga que la amo :)