Si Yo Fuera El

La Rosa

Genero:

Tablatura

A ROSA
SI YO FUERA EL

ESTE ES MI PRIMER TAB QUE LO DISFRUTEN


EY TOTI SI YO FUERA EL PERO NO LO SOY
ESTA ES LA INTRO DE GUITARRA

GUITARRA; C,G
E-----------------------------------
B-----10-8----10-8----10-8--8-------
G----9------9--------9--------9-----
D-10------10-------10-----------10--
A-----------------------------------
E-----------------------------------

E-----------------------------7-10--
B------10-8-----10-8-----10-8-------
G----9--------9--------9------------
D-10-------10-------10--------------
A-----------------------------------
E-----------------------------------

E-7-10-8----7--7-10-8----7--7-10-8----7----------
B--------10-----------10-----------10----8---8---
G------------------------------------------9-----
D------------------------------------------------
A------------------------------------------------
E------------------------------------------------

TROMP:C,G

ANTES DE ENTRAR LA VOZ MARCA ESTO:
E-------------
B-------------
G-------------
D-------------
A-------2-----
E-3-3-5-------
C G
estas triste y te visto llorar
Dm G
porque se que tu le quieres y te trata muy mal
C G
hace tiempo que no vas a bailar
Dm
te negaba a tus amigas
G G-F#-F
ya no recuerdes mas
F G
que daria yo por ocupar su lugar
F G G-G#-Am
de onda te pido ya no recuerdes mas

Am C G
coro: Si fuera el si fuera el
Dm Am
te daria todo mi amor

B fuera el B fuera el
te amaria con tanta pasion
B fuera el B fuera el
bajaria la luna y el sol
B fuera el B fuera el
Dm Am G
pero no lo soy ooy

SE REPITE TODA LA CANCION DESDE LA GUITARRA

DESPUES DE EL CORO VIENE ESTE SOLO:
E----5-5-5-3H5-1H3---------------------
B---5---5---------3--666-6--9H10-7-----
G--5--------------------7---------7----
D-7------------------------------------
A--------------------------------------
E--------------------------------------

E----5-5-5-3H5-1H3---------------------------
B---5---5---------3--5H7--5H7--5H7--5H7------
G--5--------------------7----7----7----7--5--
D-7------------------------------------------
A--------------------------------------------
E--------------------------------------------

DESPUES VIENE EL CORO DE NUEVO
Y EL FINAL ES:
G,G#,Am