Lo Peor De Todo

La Rondalla Del Desierto

Genero:

Tablatura

             G                     C            A7

1)-3-2-0-------|-----------0---2-0-3-|-3-2-0------
2)-------3-0-1-|---1-0-3-1---3-------|-------3-0--
3)-------------|-0-------------------|-----------2
4)-------------|---------------------|------------
5)-------------|---------------------|------------
6)-------------|---------------------|------------

D7

1)---3---5---7-|
2)-----------8-|
3)-1/3-3/5-5/7-|
4)-------------|
5)-------------|
6)-------------|

G C A7

1)-3-2-0-------|-----------0---2-0-3-|-3-2-0------
2)-------3-0-1-|---1-0-3-1---3-------|-------3-0--
3)-------------|-0-------------------|-----------2
4)-------------|---------------------|------------
5)-------------|---------------------|------------
6)-------------|---------------------|------------

D7

1)---3---5---7-|
2)-----------8-|
3)-1/3-3/5-5/7-|
4)-------------|
5)-------------|
6)-------------|

G

1)---------------|-----------------|-
2)-2-0---2-0---0-|-2-0---2-0-------|-
3)-----3-----3---|-----3-----3---0-|-
4)---------------|-------------4---|-
5)---------------|-----------------|-
6)---------------|-----------------|-

G Em
Se te fue el momento para amarme, de la hora
C D7 C D7
El quebranto me debiste a mi, lo siento
C D7 Bm Em
Nada puedo hacer para esperarte
C D7
Ya se acaba en mi esta ilusión.

G Em
Debes recordar que yo te ame, eterno
C D7
Que en tu aliento me solia hasta perder
C D7 G Em
Debes evocar quedando siempre me pase el tiempo
C D7
Y tu no diste nunca te limitaste a dejarte amar.

G Em
Y ahora que tu vienes no me quedo ya no hay caso no
C D7
Infinita ya no eres, te has borrado por ti sola
G Em
Y lo peor de todo es que te quiero, si te quiero
C D7
Y lo peor de todo es este amor, que siento.


G C A7

1)-3-2-0-------|-----------0---2-0-3-|-3-2-0------
2)-------3-0-1-|---1-0-3-1---3-------|-------3-0--
3)-------------|-0-------------------|-----------2
4)-------------|---------------------|------------
5)-------------|---------------------|------------
6)-------------|---------------------|------------

D7

1)---3---5---7-|
2)-----------8-|
3)-1/3-3/5-5/7-|
4)-------------|
5)-------------|
6)-------------|

G C A7

1)-3-2-0-------|-----------0---2-0-3-|-3-2-0------
2)-------3-0-1-|---1-0-3-1---3-------|-------3-0--
3)-------------|-0-------------------|-----------2
4)-------------|---------------------|------------
5)-------------|---------------------|------------
6)-------------|---------------------|------------

D7

1)---3---5---7-|
2)-----------8-|
3)-1/3-3/5-5/7-|
4)-------------|
5)-------------|
6)-------------|

G

1)---------------|-----------------|-
2)-2-0---2-0---0-|-2-0---2-0-------|-
3)-----3-----3---|-----3-----3---0-|-
4)---------------|-------------4---|-
5)---------------|-----------------|-
6)---------------|-----------------|-


G Em
Se que habia tanto por decirte, en el momento
C D7 C D7
Que ahora ya es tarde para hablar, de que
C D7 Bm Em
Para que intentar sacarlo todo, de la nada
C D7
Quien sostuvo el algo, nunca fuiste tu.

G Em
Puedes protestar por mi dureza, te comprendo
C D7
Pero y tu jamas me hiciste olvidar, porque
C D7 G Em
Yo daba mi vida hora tras hora, mi lamento
C D7
Y tu solo subias en tu poquedad.

G Em
Se te fue el momento, no me busques ya no hay caso, no
C D7
Mi nostalgia toda te la debo a ti, te hundiste por ti sola
G Em
Y lo peor de todo es que te quiero, si te quiero
C D7
Mas no puedes ofrecerme algo real tu sueñas para ti
G Em
Y si no me incluyes en tu todo yo soy nada
C D7
Como comprender entonces que este amor logre sobrevivir.
G Em
Y lo peor de todo es que te quiero.
C D7
Y lo peor de todo es que te quiero.