Quiero Ser

La Rondalla De Saltillo

Genero:

Tablatura

+--------------------------------------------------+
| La Rondalla De Saltillo - Quiero ser |
| |
| Está es la primera transcripción que hacemos |
|Eduardo y yo (Cristhián), esperemos que les guste.|
+--------------------------------------------------+


Requinto Inicial:


e|-----------------------------5---7----------9-7-----------------------|
B|-2-3-5--5-5/7-5-----5--------------10-9-10------10-9-10-9-7---10--9---|
G|----------------7-6---7-6-7---------------------------------9---------|
D|----------------------------------------------------------------------|
A|----------------------------------------------------------------------|
E|----------------------------------------------------------------------|


Acordes Mietras se toca el Requinto:

A - A7 - D - Dm A - E


Adorno 1 : Adorno 2 :

e|------2-------| e|--------------|
B|--3-5---3-5---| B|------2-------|
G|--------------| G|--2-4---2-4---|
D|--------------| D|--------------|
A|--------------| A|--------------|
E|--------------| E|--------------|



--> Empieza arpegiando las cuerdas.

A E
Quiero ser, sólo de ti
F#m D E (Adorno 1)
Y que tú seas para mi
A A7 D
quiero estar contigo en todas partes
Dm A E
llevarte por igual, conmigo a donde voy (Adorno 2)


--> Aquí y se toca con el rasgueo normal.


A E
No es igual, amarte a ti
F#m D E
que querer a otra mujer
A A7 D Dm
no es igual, quererte como amiga nada mas
A E
que compartir, todo nuestro amor

D-E A A7
Quiero ser, (yo quiero ser)
D Dm A
parte de tu ser, habitar en tu interior
D A
ser el nido de tu amor
Bm D E
que mi casa sea tu corazón


--> Requinto Inicial.

--> Acordes Mietras se toca el Requinto:

A - A7 - D - Dm A - E


A E
No es igual, amarte a ti
F#m D E
que querer a otra mujer
A A7 D Dm
no es igual, quererte como amiga nada mas
A E
que compartir, todo nuestro amor
D-E A A7
quiero ser, (yo quiero ser)
D Dm A
parte de tu ser, habitar en tu interior
D A
ser el nido de tu amor
Bm D E
que mi casa sea tu corazón
D-E A A7
quiero ser, (yo quiero ser)
D Dm A
tu razón de ser, tu poema tu canción
D A
estar juntos ante Dios
Bm D E
y habitar un sólo corazón
Bm D E
que mi casa sea tu corazón
D Dm A
y habitar un sólo corazón



* Esperamos que esta rola sea de tu agrado.

** Cualquier duda, o sugerencia no olviden mandarla al correo.

*** También envien peticiones de canciones de La Rondalla De Saltillo,
nosotros trataremos de sacarlas y compartirlas con ustedes.



Dedicatoria de Eduardo:

Dedico esta rola a la rondalla \'Voces\'.....y a sus
integrantes por completo.
No claudiquen en sus propósitos y recuerden ke no
deben tenerle miedo a la vida.

Dedico también esta rola a mi novia Blanqui:
\'Quiero ser, todo de ti\'.

Dedicatoria de Cristhián:

Bueno, quiero ofrecer esta rola igualmente que
Eduardo, a nuestra rondalla
\'Voces\', así como también a todas las mujeres que
en algún momento han
formado parte de mi vida.

A ellas... Gracias.



Bytes !!!