Papillón

La Rondalla De Saltillo

Genero:

Tablatura

PAPILLON

Intro: Am Dm Am E7 Am

PRIMER GUITARRA
E-------7-8-7----8--13-12-10--12--10-8-10-8-7-----------------------
B----10--------10---------------------------------------------------
G--9----------------------------------------------------------------
D-------------------------------------------------------------------
A-------------------------------------------------------------------
E-------------------------------------------------------------------

SEGUNDA GUITARRA TREMULADO (Sobre el requinto)
NOTA: los números no indican la exactitud de la música;
hay que escuchar la canción para ajustarlo

E-12-12-12-12-12-13-13-13-13-10-10-10-10-8-8-8-8-8-7-7-7-7-5-5-5-5-5-
B--------------------------------------------------------------------
G--------------------------------------------------------------------
D--------------------------------------------------------------------
A--------------------------------------------------------------------
E--------------------------------------------------------------------


Am
Mira qué lejos quedo
E7
El recuerdo del mundo de ayer
Dm
Y la luz que una vez
G7 C E7
Alumbro nuestro amanecer

Am
Las mariposas al sol
E7
Me recuerdan de la libertad
Dm Am
De volar para volver
E7 Am A7
A sonreír y a cantar

Dm Am
La libertad, la libertad
E7 Am
Cuando tendré libertad

Requinto intermedio
Am Dm Am E7 Am

PRIMER GUITARRA
E-------7-8-7----8--13-12-10--12--10-8-10-8-7-----------------------
B----10--------10---------------------------------------------------
G--9----------------------------------------------------------------
D-------------------------------------------------------------------
A-------------------------------------------------------------------
E-------------------------------------------------------------------

SEGUNDA GUITARRA TREMULADO (Sobre el requinto)

E-12-12-12-12-12-13-13-13-13-10-10-10-10-8-8-8-8-8-7-7-7-7-5-5-5-5-5-
B--------------------------------------------------------------------
G--------------------------------------------------------------------
D--------------------------------------------------------------------
A--------------------------------------------------------------------
E--------------------------------------------------------------------

Am
Mira qué lejos esta
E7
La respuesta que tanto busque
Dm Am
Del amor de juventud
E7 Am A7
Que se perdió sin volver

Dm Am
La libertad, la libertad
E7 Am A7
Cuando tendré libertad

Dm Am
La libertad, la libertad
E7 Am
Cuando tendré libertad


Dudas o aclaraciones a mi correo