Despiértame

La Rondalla De Saltillo

Genero:

Tablatura

INTRO:

Am Dm G7
B |---------------------------|
E |-5-7-8-8-7-5-3-1--1-5-3----|

C Am
B |---------------------------|
E |-3-5-7-7-5-3-1-0--0-3-1----|

Dm E7 Am
G |------------------------2---|
B |---------------3--3-1-0---0-|
E |-1-3-5-5-3-1-0--------------|

Am Dm
Despiértame si me quedo dormido
G7 C
Despiértame, despiértame amor mío
Am Dm
Y preparar juntos el desayuno
E7 Am
Despiértame, despiértame amor mío

Dm
Despiértame con un beso en los labios
G7 C
Despiértame y envuélveme en tus brazos
Am Dm
Y mírame, mírame a los ojos
E7 Am
Y dime que soñaste con mis besos
E7 Am
Despiértame amor mío


Dm G7
DESPIÉRTAME (DESPIÉRTAME)
C Am
Y ABRE TODAS LAS VENTANAS DE PAR EN PAR (U-U-U)
Dm
Y QUÉDATE UN MOMENTO JUNTO A LA CLARIDAD
E7 Am
QUE PUEDA COMPARAR QUE TODO ES REALIDAD
E7 Am
Y NO ES UN SUEÑO

Dm G7
DESPIÉRTAME (DESPIÉRTAME)
C Am
QUE QUIERO COMPARTIR CONTIGO LA LUZ DEL SOL (U-U-U)
Dm
QUE QUIERO ACARICIAR TU PELO Y OÍR TU VOZ
E7 Am
QUE QUIERO VER AMANECER EL DÍA CONTIGO
E7
DESPIÉRTAME AMOR MÍO


Am Dm
B |----------------------------|
E |-5-7-5-8--5-7-5-8--5-7-5-10-|

G7 C
B |---------------------------------|
E |-7-10-8-10--7-10-8-10--8-10-8-12-|

Am Dm
B |---------------------------|
E |-12-10-8--8-10-8-7---------|

E7 Am
B |--------------------------|
E |-7-5-4--4-5-7-7-5-5-4-5---|

Dm G7
DESPIÉRTAME (DESPIÉRTAME)
C Am
Y ABRE TODAS LAS VENTANAS DE PAR EN PAR (U-U-U)
Dm
Y QUÉDATE UN MOMENTO JUNTO A LA CLARIDAD
E7 Am
QUE PUEDA COMPARAR QUE TODO ES REALIDAD
E7 Am
Y NO ES UN SUEÑO

Dm G7
DESPIÉRTAME (DESPIÉRTAME)
C Am
QUE QUIERO COMPARTIR CONTIGO LA LUZ DEL SOL (U-U-U)
Dm
QUE QUIERO ACARICIAR TU PELO Y OÍR TU VOZ
E7 Am
QUE QUIERO VER AMANECER EL DÍA CONTIGO
E7
DESPIÉRTAME AMOR MÍO