Canto Solo Para Tí

La Rondalla De Saltillo

Genero:

Tablatura

Esta canción tiene rekinto y tiene un tremolado
que acompaña a los acordes.

Bm - A significa que es un remate (un rasgueo)
en cada acorde.

Rekinto
Bm Bm - A G

E ------------------------------------------
A ------------------------------------------
D ------------------------------------------
G ------------------------------------------
B ---7-7-7-7-7-----14-15-14-----15-14-12----
E ---6-6-6-6-6-----12-14-12-----14-12-10----

A7 D F# C#m

E ------------------------------------------
A ------------------------------------------
D ------------------------------------------
G ------------------------------------------
B ---12-12-12--10--10---8-8--7--6-7-7-------
E ---10-10-10---9---9---7-7--5--4-5-6-------

F# Bm Bm - A G

E ------------------------------------------
A ------------------------------------------
D ------------------------------------------
G ------------------------------------------
B ---7-7-7-7-7-----14-15-14-----15-14-12----
E ---6-6-6-6-6-----12-14-12-----14-12-10----

A7 D

E -----------------------------------
A -----------------------------------
D -----------------------------------
G -----------------------------------
B ---12-12-12--10--10---8-8--7-------
E ---10-10-10---9---9---7-7--5-------


TREMOLADO

Empieza al mismo tiempo que el rasgueo de las
guitarras en Bm.

Bm Bm - A G A7

G -------------------------------------------
B --33333333333---33333333333---55555555555--
E --22222222222---33333333333---55555555555--

D F# C#m F#

G --------------------------------------------------------
B --33333333333---22222222222---55555555555---2222222222--
E --22222222222---22222222222---44444444444---2222222222--

Bm Bm - A G A7 D

G ------------------------------------------------------
B --33333333333---33333333333---55555555555---3333333333
E --22222222222---33333333333---55555555555---2222222222


Este tremolado acompaña tambien en el coro cuando el
solista dice “Ahora solo te recuerdo...”. El tremolado
empieza cuando las guitarras cambian a Bm.


Acordes y letra.

No se como se llaman los siguientes acordes, con esos
asteriscos los voy a representar.


* ***

E -------/-------
A -------/-------
D ---1---/---4---
G ---2---/---5---
B ---1---/---4---
E ---2---/---5---


D * Em A7
Canto solo para ti mi amor

E -----------------
A -----------------
D -----------------
G -----------------
B ---5--7--8-------
E ---3--5--7-------

por la nostalgia

D
que has dejado en mi

E -----------------
A -----------------
D -----------------
G -----------------
B ---3--5--7-------
E ---2--3--5-------
***
por la ternura

Em G
que hay dentro de ti

A7 D A7 D
dejando amor sin ser feliz.



* Em A7
Yo no sé por qué te fuiste asi

D
tú significas todo para mi

*** Em G
las ilusiones las dejaste ir

A7 D A7 D
cuando te vi, te vi partir.


(Aquí es donde se toca otra vez
el tremolado)
F# Bm Bm - A G
Ahora solo te recuerdo

A7 D F# C#m
te siento mía otra vez

F# Bm Bm - A G
sigues viviendo aquí muy dentro

A7 D (Pausa en las guitarras)
y de aquí adentro no te irás.

Rekinto

(un rasgueo)* Em A7

E ----------------------------------
A ----------------------------------
D ----------------------------------
G ----------------------------------
B -------------------------3--2-----
E ---2--3--5--5s7--5--2--0----------

D

E -----------------------------------
A -----------------------------------
D -----------------------------------
G -----------------------------------
B -----------------------------------
E ---3--3-5--7--7s9--7--3--2---3--2--

*** Em G

E -----------------------------------
A -----------------------------------
D -----------------------------------
G -----------------------------------
B -----------------------------------
E ---5--5--7--9-9s10--9--5--3--5-3---

A7 D A7 D A7 D

E -----------------------------------
A -----------------------------------
D -----------------------------------
G -----------------------------------
B ---------------3-5-6-7---7-6-5-3---
E -5s7--5--3--2--2-3-4-5---5-4-3-2---


* Em A7
Yo no sé por qué te fuiste asi

D
tú significas todo para mi

*** Em G
las ilusiones las dejaste ir

A7 D A7 D
cuando te vi, te vi partir.


(Aquí es donde se toca otra vez
el tremolado)
F# Bm Bm - A G
Ahora solo te recuerdo

A7 D F# C#m
te siento mía otra vez

F# Bm Bm - A G
sigues viviendo aquí muy dentro

A7 D
y de aquí adentro no te irás...


canto solo para ti.