Voy A Bailar A La Nave Del Olvido

La Renga

Genero: Pop

Tablatura

G           D
Hoy voy a bailar -Riff 1-
G D
A la nave del olvido -Riff 1-
G D
Olvido E gotera -Riff 1-
G D
y mi Racion Crminal -Riff 1-

C G
Perfumes baratos, ambiente picado
C D
Discos rayados ya quiero despegar

D A
Hoy voy a balar
D A
A la nave del olvido
D A
Olvido a mis hermanos
D A
Estampita de estacion

G D
Veni morocha que vamos a dar
G A
Una vuelta al chaperio

G D
La Perito esta desierta y la luna
A Bm Bm-A-G-G#-A
que se ha posado sobre los techos

De pompeya

Punteo:
D A D G
1------------------------------------------------7--7--7--9--10
2--------7--7----------------------7--7--7---------------------
3-------------9--7--9-----------7----------9--7----------------
4---------------------7----7--9--------------------------------
5--------------------------------------------------------------
6--------------------------------------------------------------

D A Bm D A D
1----------------------------12--10--10--17--15--14--15--17--15
2-10--12--10--9--10--7--8--7-----------------------------------
3--------------------------------------------------------------
4--------------------------------------------------------------
5--------------------------------------------------------------
6--------------------------------------------------------------

Sobre:Re La
Hoy voy a bailar a la nave del olvido
olvido mi gotera y mi ración criminal
G D
Zapatos embarrados vuelvo algo mareado
G A
Esquivando charcos todo va a despertar

G D
La Perito sigue desierta y el sol
A Bm - G-G#-A
que se ha posado sobre los techos
De Pompeya.

Riff 1:
1-----------------
2-----------------
3-----------------
4-----4--2--0-----
5-----------------
6-----------------

Riff 2:
1-----------------
2-----------------
3-----------------
4-----------------
5-----4--2--0-----
6-----------------