Un Tiempo Fuera De Casa

La Renga

Genero: Pop

Tablatura

      D            A             G
Lo dejaste y buscaste otro destino
D A G
caminaste y nunca encontraste el mio
D A G
no supiste enfrentar la realidad
D A G
y los dias te hicieron comprender

que no era asi nena, no...

Solo viola 1
*bajar la cuerda, sin tocar con la púa
** slide
E|---------------------------------------------------------------|
A|---------------------------------------------------------------|
D|-------------------------------------------------------9----9--|
G|9(11)-----(11)--9(11)--9(11)-----(11)-*9(11)--9(11)-9-7--7-7---|
B|------10--------10-----10-----10-------------------------------|
E|---------------------------------------------------------------|

E|------------------------------------------------------------|
A|------------------------------------------------------------|
D|**9-11-11-11------------------------------------------------|
G|------------10--12-12-10--10(14)--10(14)10------------------|
B|--------------------------------11----------15--------------|
E|--------------------------------------------15-15-----------|

E|--------------------------------------------------------------------|
A|--------------------------------------------------------------------|
D|----------------------------------------------14-------15--------14-|
G|--------------------14(15)-14-12-14(15)-14-12----14(15)---14(15)----|
B|12-14(15)(15)-14-12-------------------------------------------------|
E|--------------------------------------------------------------------|

D A G
Recordaste y ahora estas arrepentida
D A G
y volves pero no dejas de lado
D A G
las cosas que aprendiste alla afuera
D A G
y quizás hoy te vuelvas a marchar



Solo viola 2

E|---------------------------------------------------------------|
A|---------------------------------------------------------------|
D|-------------------------------------------------------9-------|
G|9(11)---12(14)----(14)-------13--12-10-12-10--9(11)9-7---7-9---|
B|----------------13-----12(14)----------------------------------|
E|---------------------------------------------------------------|

E|---------------------------------------------------------------|
A|---------------------------------------------------------------|
D|-------------------------14(15)-14-12------13-9-13-9-----9-----|
G|14(16)---(16)-14-12-(16)--------------14--------------12-------|
B|------15-------------------------------------------------------|
E|---------------------------------------------------------------|

G|-13-9-13-9-----9---13-9-13-9-----------------------------------|
B|------------12----------------12-------------------------------|


Solo de saxo


D A G
Recordaste y ahora estas arrepentida
D A G
y volves pero no dejas de lado
D A G
las cosas que aprendiste alla afuera
D A G
y quizás hoy te vuelvas a marchar

D A
Pero ya con un poco más
G
de camino recorrido por vos