Tripa Y Corazón

La Renga

Album: La Renga
Genero: Pop

Tablatura (Ver letra)

Intro

E---------------
B---------------
G--------7--9---
D---2-2--6--8---
A---2-2---------
E---0-0---------

Riff 1

E---------------------------
B---------------------------
G--------------------------5
D--------------------------5
A--7--5--3--2--0--3--2--0--3
E---------------------------

Riif 2

E--------------------
B---------5----------
G--2]--4-----3--2--0-
D--------------------
A--------------------
E--------------------

G/LA*

E --5---
B --5---
G ------
D ------
A --4---
E --5---


G A
Condenado a la sed de ser
G A
Siempre que hay vida habrá esperanza
G A
se suda sangre por florecer
G A
y en marchitarse con poco alcanza

Riff de Intro

Até con tripa mi corazón
sin más que eso salí a la cancha
para lo malo habrá un mejor
toda esta en mí la confianza

Riff

C G Riff 1
Es tu canción la que quiero oír en mi voz
C Em Riff 2
cuando me digas que todo va a estar mejor
C G
que aún ves el camino, que no te derriban
G/LA*
brindo por la ilusión.

Riff

La sed que condenó a mi ser
la que me dió la esperanza
me dió sangre para beber
y también para derramarla

Riff
C G C Em

Es tu canción la que quiero oír en mi voz.......

Riff