Pole

La Renga

Genero: Pop

Tablatura

Intro:

e|------------------------------------------|
B|--5h7p5-----5h7p5-------------------------|
G|--------7~--------7~----------------------|x4
D|------------------------------------------|
A|---------------------6/7-7/6/7-7/6/7-7-7--|
E|---------------------4/5-5/4/5-5/4/5-5-5--|

D A
Te fuiste lejos, mi viejo amigo,
B G
¿Ahora a quién consejos voy a pedir?
A esta parodia le falta un mimo
y del libreto vas a salir.

Acá en la calle está tu teatro
y el primer acto vas a morir.
Para ser todos y de todo un poco,
para que llore o me hagas reír.

Intro x2

B G
Si de la sombra nacen los soles,
aún quedan noches que amanecer.
Pero me falta esta madrugada,
mi viejo amigo, que me aconsejes.

Intro x2

Solo

D A
Y aquel galpón que ya no existe,
B G
donde creciste y pude aprender,
todos los trucos que me enseñaste,
tan sólo con el arte de querer ser.

B G
Si de la sombra nacen los soles,
aún quedan noches que amanecer.
Pero me falta esta madrugada,
mi viejo amigo, que me aconsejes.

Final:

e|------------------------------------------| |----------|
B|--5h7p5-----5h7p5-------------------------| |----------|
G|--------7~--------7~----------------------|x4|----------|
D|------------------------------------------| |----------|
A|---------------------6/7-7/6/7-7/6/7-7----| |--8--9~~--|
E|---------------------4/5-5/4/5-5/4/5-5----| |--6--7~~--|