Poder

La Renga

Album: Algún Rayo
Genero: Pop

Tablatura (Ver letra)

Intro

|-0--(0)-------(0)--
|-0-------(0)-------
|-0----(0)---(0)----
|-2-----------------
|-2-----------------
|-0-----------------

Riff utilizado en los versos

|---------------------------------------
|---------------------------------------
|---------------------------------------
|---------------------------------------
|-2-----------4-----------5-----------4-
|-0-0-0-0-0-0-2-0-0-0-0-0-3-0-0-0-0-0-2-
|---PM----| |---PM----| |---PM----|

Coro

E5 A5 D5 A5 E5
Hace Falta Poder, PODER!, Poder para poder
(se hace lo mismo en el otro coro en la parte:
"el mismo que has de vencer!")

1er Solo
Base E5

|----------------------------------------------------------
|--------------------15bap---------------------------------
|--------------------------12v-----------------------------
|----------------------------------------------------------
|------5-5-7-7v---------------------5-5-7-7v------5-5v-7v--
|-0-0------------0-0------------0-0-----------0-0----------
|PM| |PM| |PM| |PM|

|-------------------------
|-------------------------
|-------------------------
|----------------------x4-
|-------5-5h7h5h7h5h7-----
|-0-0-0-------------------
|PM|

|-------------------------------------------7v--
|-------------------------------888810101010----
|---------------------------77779999------------
|-------------------77779999--------------------
|-------777710101010----------------------------
|-00000-----------------------------------------

Principio 2do solo

|---------------------------------------------------------------
|-7p5p0-7p5p0-7p5p0-7p5p0-8p5p0-7p5p0-8p5p0-7p5p0-8p5p0-7p5p0---
|---------------------------------------------------------------
|---------------------------------------------------------------
|---------------------------------------------------------------
|---------------------------------------------------------------

Hay tienen gran parte de la cancion espero les guste ya pronto
entregare el 2do solo Aguante La Renga M*****!