Paja Brava

La Renga

Genero: Pop

Tablatura

INTRO:
A G G#
-------------------------------------------------
--2--2--2---2--2--------2--2--2---2--2-----------
--2--2--2---2--2--------2--2--2---2--2-----------
--2--2--2---2--2--------2--2--2---2--2-----------
-----------------0-2p3------------------0-2p3----
-------------------------------------------------

con intro

En la tierra crece hierba buena
con la lluvia y el rayo del sol
pasadizo para el otro patio
punto rojo casita de Dios

E
El beleño y la belladona
amanita y la mandrágora

D D4
florecitas de mi tierra santa
A
viajecito para el mas allá,

Va la intro:

con intro
Masca coca que ya estamos alto
cáñamo bueno pa´ la tristeza
mescalito ya viene a buscarte
venadito, peyote y maíz.

E
El cornezuelo y la ayaguasca
el tornaloco y la salvia

D D4
el San Pedrito de los cuatro vientos
el virola y el floripondio

Punteo:

------------------------------------------------------------------------
-/-17-15-13-10-10-10-/-17-15-13-10-10-10-/-17-15-13-10-10-10---2-2-2-2--
---------------------------------------------------------------2-2-2-2--
---------------------------------------------------------------2-2-2-2--
------------------------------------------------------------------------
------------------------------------------------------------------------

----------------------------------------------------------------------3--
-/-17-15-13-10-10-10-/-17-15-13-10-10-10-/-17-15-13-10-10-10---2-2-2-2--
---------------------------------------------------------------2-2-2-2--
---------------------------------------------------------------2-2-2-2--
------------------------------------------------------------------------
------------------------------------------------------------------------

En la tierra crece hierba buena
con la lluvia y el rayo del sol
E
pesadizo para el otro patio
D5 A
punto rojo, casita de Dios.

final con intro

Este es un tema muy relajante para el fogon. Gracias de todo corazón,
Diego de lomas de zamora