Oscuro Diamante

La Renga

Album: Truenotierra
Genero: Pop

Tablatura (Ver letra)

Esta es mi corrección de la tab que mando leo.
Le cambie un par de cosas que a mi gusto suenan mejor.


Oscuro Diamante

E----------------------------------------------------
B----------------------------------------------------
G----------------------------------------------------
D-----------5--7----------------------------5-5----------
A-2-3--2-2--3--5--5/--(X4)-2-3-2-2-punteo A-3-3--punteo B
E------0-0---------------------0-0-----------------------

E C
Busquemos vida algún lugar
G
al reparo del mundo sin brillo que hoy
D
en el cosmos de la mente
B C
se hizo estrella opaca.
E C
Hacia donde mas podemos ir?
G
Tal vez el oscuro diamante este en mi.
D
Tal vez seamos fugitivos
B C
de donde nadie escapa.

E5 E5 Punteo A C5 C5 Punteo B (Bajo: Estrofa)

E C
Una huella invisible quisiera dejar
G
y que nadie sepa que estuvimos acá
D
Quién dio a luz al primer sueño?
B C
para ir tan lejos
E C
si pudieran mis ojos ver en el sol
G
para saber, en la sombra descifrar
D
pero aunque ya se hizo tarde
B C
sigamos buscando.


E5 E5 Punteo A C5 C5 Punteo B hasta el primer Mi
en la primer cuerda, se toca con vibrato.

E--------------------------
B--------------------------
G--------------------------
D-----------5--7-----------
A-2-3--2-2--3--5--5/--(X4)-
E------0-0-----------------




E C G D B C X2 (se toca igual que en las estrofas)


E C
Pérdido sin decirlo presiento el final
G
enterrardo en la noche el pesado dolor
D
nos hacemos mas livianos
B C
nos quedamos sin sentido
E C
el mundo por fin se apagó
G
dejando a oscuras la vieja ilusión
D
y aunque sea ya muy tarde
B C
seguimos buscando

FInal: Igual que la intro pero en lugar del punteo A hace
el punteo C que es un arreglo del A


Punteo A :
E--------------------7p8h10p8
B----------7-7h8p7----
G--------9---------9--
D------9--------------
A-7-10----------------
E---------------------

Punteo B :

E------------------------12-12-15-10-10-10-10h12-10-10-8-7-8-7h8p7-7- -ba/7
B-----------12-12h13p12-----------------------------------------------ba/10
G---------14-----------14---
D-------14------------------
A-12-15---------------------
E---------------------------

Punteo C:
E-------------------7-7-8-7-(apaga las notas)-7-----------------
B----------7-7h8p7----7-8-7-------------------7-h8p7h8p7h8p7....
G--------9---------9--------------------------------------------
D------9--------------------------------------------------------
A-7-10----------------------------------------------------------
E---------------------------------------------------------------





Vibrato>>> ~
Vibrato fuerte>> ~~~
Estiradas>> B
Estirar y bajar>>> ba
Estirar y bajar varias veces>>> ba/
Slide>>> s
Sonidos armónicos>>> <>
Ligados ascendentes> h
Ligados descendentes> p
Se mantiene la estirada> /
Baja A estirada //
Tremolo *
Toca la nota siguente con la estirada mantenida b/



Aguante La Renga




El Cholo (guido_rosello73@hotmail.com)