Oportunidad Oportuna

La Renga

Genero: Pop

Tablatura (Ver letra)

Bueno es bastante simple esta canción
la palabras que pongo en mayuscula es cuando cambia de nota o empieza
una

Intro: "Fill"
G|-----------------------------------------------------|
D|----------------------5------------------------------|
A|----3-3-3-5-5-5-7-7-7---7-5--3-3-3-5-5-5-------------|x2
E|-----------------------------------------3-3-3-3-3-3-|


Verso 1
Esta noche es la noche...
G|----------------------------------------------|
D|----------------------------------------------|
A|----------------------------------------------|
E|--3-3-3-3-3-3-3-3-3-3-3-3-3-3-3-3-3-3-3-------|

Voy a salir... (...) MAS esta historia
G|----------------------------------------------|
D|----------------------------------------------|
A|--3-3-3-3-3-3-3-3-3---------------------------|
E|---------------------3-3-3-3-3-3-3-3----------|

La vida SOLO(5) tiene una VIDA(7) y no voy a ESPERAR(3)
G|----------------------------------------------|
D|----------------------------------------------| en el segundo 5 no
A|--5-5-5-5-5-7-7-7-7-7-3-3-3-3-3-5-5-5-5-5-----| hay letra
E|----------------------------------------------|

a esos que quieren SENTIR(3)...
G|-----------------------------------------------------|
D|----------------------5------------------------------|
A|----3-3-3-5-5-5-7-7-7---7-5--3-3-3-5-5-5-------------|
E|-----------------------------------------3-3-3-3-3-3-|

Puente
G|-----------------------------------------------------|
D|----------------------5------------------------------|
A|----3-3-3-5-5-5-7-7-7---7-5--3-3-3-5-5-5-------------|
E|-----------------------------------------------------|

Verso 2= VERSO 1

Puente 2
Mantiene Sol E|-3-

Verso 3

si te SENTAS a esperar que vengan por VOS...
G|-----------------------------------------------------|
D|-----------------------------------------------------|
A|-3-3-3-3-3-3-3-3-3-3---------------------------------|
E|---------------------3-3-3-3-3-3-3-3-3-3-------------|

vas a ESPERAR tanto tiempo que ya la VIDA...
G|-----------------------------------------------------|
D|-----------------------------------------------------|
A|-3-3-3-3-3-3-3-3-3-3---------------------------------|
E|---------------------3-3-3-3-3-3-3-3-3-3-------------|

este TREN se va y en EL solo QUEDAN (5 al aire)
G|----------------------------------------------|
D|----------------------------------------------|
A|--5-5-5-5-5-7-7-7-7-7-3-3-3-3-3-5-5-5-5-5-----|
E|----------------------------------------------|

a esos que quieren SENTIR(3)...
G|-----------------------------------------------------|
D|----------------------5------------------------------|
A|----3-3-3-5-5-5-7-7-7---7-5--3-3-3-5-5-5-------------|
E|-----------------------------------------3-3-3-3-3-3-|

Solo de Guitarra
G|----------------------------------------------|
D|----------------------------------------------|
A|--------------------5-5-5-5-5-5-5-5-5-5-------|x3
E|-3-3-3-3-3-3-3-3-3----------------------------|

G|----------------------------------------------|
D|----------------------------------------------|
A|-5-5-5-5-7-7-7-7-7--3-3-3-3-3-3-5-5-5-5-5-5---|
E|----------------------------------------------|

G|-----------------------------------------------------|
D|----------------------5------------------------------|
A|----3-3-3-5-5-5-7-7-7---7-5--3-3-3-5-5-5-------------|x2
E|-----------------------------------------3-3-3-3-3-3-|

Verso 4= VERSO 3

Final

Repite la intro 2 veces pero en la segunda no hace la segunda parte
que seria lo que sigue del fill, para aclarar seria intro x1 y la
segunda parte es:

G|-----------------------------------------------------|
D|----------------------5------------------------------|
A|----3-3-3-5-5-5-7-7-7---7-5--------------------------|
E|-----------------------------------------------------|

y el final final
G|-----------------------------------------------------|
D|-----------------------------------------------------|
A|----3-3-3-5-5-5-3-3-3-5-5-5-7-77-5-55--33333-5--#----|
E|--------------------------------------------------3--|


#= el punteito que hace chizzo con la guitarra

la primera parte del primer y segundo verso tal vez no les suene
pero si escuchan bien van a darse cuenta que no cambia de nota en
ningun momento ^^

bueno espero que les sirva cualquier duda me mandan un mail:
frangm@live.com.ar
un abrazo