Negra Es Mi Alma, Negro Mi Corazón

La Renga

Genero:

Tablatura

Negra es mi alma, negro mi corazón.

Intro;
Guitarra Firebird Gibson (Chizzo)

e|----------------------------------------------------|------------------------------------|
B|----------------------------------------------------|------------------------------------|
G|----10---------12b\p10------10---------12b\p10------|-5-------7b\p5-----5-------7b\p5----|
D|----10--12p10-----------12--10--12p10----------12---|-5--7p5---------7--5--7p5---------7-|
A|----------------------------------------------------|------------------------------------|
E|----------------------------------------------------|------------------------------------|

e|----------------------------------------------------|------------------------------------|
B|----------------------------------------------------|------------------------------------|
G|-10---------12b\p10------10---------12b\p10---------|-5-------5---7b---------5-----------|
D|-10--12p10-----------12--10--12p10-----------12-----|-5---7------------------------------|
A|----------------------------------------------------|------------------------------------|
E|----------------------------------------------------|------------------------------------|

e|----------------------------------------------------|------------------------------------|
B|----------------------------------------------------|------------------------------------|
G|----10---------12b\p10------10---------12b\p10------|-5-------7b\p5-----5-------7b\p5----|
D|----10--12p10-----------12--10--12p10----------12---|-5--7p5---------7--5--7p5---------7-|
A|----------------------------------------------------|------------------------------------|
E|----------------------------------------------------|------------------------------------|

e|----------------------------------------------------|------------------------------------|
B|----------------------------------------------------|------------------------------------|
G|-10---------12b\p10------10---------12b\p10---------|-5-------5---7b---------5-----------|
D|-10--12p10-----------12--10--12p10-----------12-----|-5---7------------------------------|
A|----------------------------------------------------|------------------------------------|
E|----------------------------------------------------|------------------------------------|

[F7]

Riff 1

e|--------------------------------------|
B|--------------------------------------|
G|----5--------5-7-5---5--------5-7-5---|<<
D|----5---5-7----------5---5-7----------|
A|--------------------------------------|
E|--------------------------------------|

Riff 2

e|------------------------------|-----------------------|
B|------------------------------|-----------------------|
G|----10-----------12b\p10------|------10----12b-12b----|
D|----10----12p10------------12-|-12--------------------|
A|------------------------------|-----------------------|
E|------------------------------|-----------------------|

Riff 3 (Outro)

e|------------------------------|-------------------------------------------------------------------------------|
B|------------------------------|-------------------------------------------------------------------------------|
G|----10-----------12b\p10------|------10----12b-12b-----12b-12b-12b-12b-12b-12b---12b\p10--12p10---------10~---|
D|----10----12p10------------12-|-12--------------------------------------------------------------12~~----10~---|
A|------------------------------|-------------------------------------------------------------------------------|
E|------------------------------|-------------------------------------------------------------------------------|


Verso 1: F7 C7
OOOOOO OOOOOO III
C |||O|| ||||||
Triste o muy solo, |O||O| C ||O|O|
F7 |||||| |O|||| ||||||
esclavo y fugitivo, ||||O|
C ||OO||
mostraste tu puño D |||||| A
F7 |||||| ||||||
al cielo y la libertad |||O|O ||OOO|
||||O| ||||||
|||||| Bb ||||||
Verso 2: OOOOOO
||||||
D A ||O|O|
Las cadenas no pudieron callarte, Bb7 |||||| C*
C F7 OOOOOO ||||||
y en todo el mundo tu grito se escuchó, ah ah |||||| |OO|||VII
D A ||O|O| ||||||
y las heridas de tu alma no pudieron |||||O ||||||
C F7
apagar tu alegría y tampoco tu llanto


Estribillo:

Bb F7
Te veo bailar al ritmo del tambor,
C7 F7
mi piel tan blanca se tiñe de vos.
Bb7
Tu ritmo alegre me contagió, ah ah
C7
y un triste blues la piel me erizó
y ahora:
Riff 1 Riff 2
Negra es mi alma, negro mi corazón
Riff 1 Riff 2
Negra es mi alma, negro mi corazón
Riff 1 Riff 2
Negra es mi alma, negro mi corazón


Solo de armónica: [C7 F7]>>>Riff 1

Verso 3:

D A
No podrán detener tu fuerza,
C F7
el cielo es negro antes de llover, ah ah
D A
la fuerte lluvia que lava las pieles
C F7
menos las almas menos las almas¡no ves! yeah yeah yeah...


Estribillo:

Bb F7
Te veo bailar al ritmo del tambor,
C7 F7
mi piel tan blanca se tiñe de vos.
Bb7
Tu ritmo alegre me contagió, ah ah
C7
y un triste blues la piel me erizó
y ahora:
Riff 1 Riff 2
Negra es mi alma, negro mi corazón
Riff 1 Riff 2
Negra es mi alma, negro mi corazón
Riff 1 Riff 2
Negra es mi alma, negro mi corazón

(sin guitarra)
Negra es mi alma, negro mi corazón
Negra es mi alma, negro mi corazón
Negra es mi alma, negro mi corazón
Negra es mi alma, negro mi corazón
Negra es mi alma, negro mi corazón
Riff 1 Riff 2
Negra es mi alma, negro mi corazón
Riff 1 Riff 2
Negra es mi alma, negro mi corazón
Riff 1 Riff 2
Negra es mi alma, negro mi corazón


C* C* Riff 2
Negra es mi alma...negro mi corazón

Solo de saxo: [C7 F7]>>>Riff 1
C* C* Riff 3
Negra es mi alma...negro mi corazón


Fin...