Motorock

La Renga

Album: Pesados Vestigios
Genero: Pop

Tablatura (Ver letra)

Intro:

Riff 1
-----------------------------------------------
-----------------------------------------------
---------2----------2------------2---------2---
--2--7-6-2---2--7-6-2-2--(2)-7-6-2---2-7-6-2---
--2--7-6-0---2--7-6-0-2--(2)-7-6-0---2-7-6-0---
--0--5-4-----0--5-4---0--(0)-5-4-----0-5-4-----

Riff 1 ×2

F#
Vi agarrado a la rama
una víctima encandilada.

Riff 1

F#
Iba al borde de la raya,
ni siquiera parpadeaba.

Riff 1

Riff 2
------------
------------
------------
------------
--0-2-4-2---
------------

B Riff 2
Pidió rápido un ataúd,
B Riff 2
una cortina que le tape la luz.
B Riff 2
Se hizo muy tarde y quiere volver
B
por la autopista antes del amanecer.

Riff 1 ×2

F#
Una banda que tocaba,
motocicletas descontroladas,

Riff1

F#
iba al borde del abismo,
iba leyendo el precipicio.

Riff 1

B Riff 2
Prisionero de la libertad,
B Riff 2
es un buen día para vos,
B Riff 2
tomá un estribo antes de salir
B
por la autopista, antes que salga el sol.

Riff 1

Riff 3
--------------------------------------
--------------------------------------
---4---4---4---4-----6---6---6---6----
---4-4-4-4-4-4-4-4---6-6-6-6-6-6-6----
---2-4-2-4-2-4-2-4---4-6-4-6-4-6-4----
-----2---2---2---2-----4---4---4------

Si + Riff 2 ×3
B
Riff 1 ×2
B
Riff 1

F#
Vi agarrado a la rama
una víctima encandilada.

Riff 1

F#
Iba al borde del abismo,
iba leyendo el precipicio.

Riff 1


B Riff 2
Prisionero de la libertad,
B Riff 2
es un buen día para vos,
B Riff 2
tomá un estribo antes de salir
B
por la autopista, antes que salga el sol.

Riff 1
Riff 3

-----------
-----------
------2----
--7-6-2-2--
--7-6-0-2--
--5-4---0--