Luciendo Mi Saquito Blusero

La Renga

Genero: Pop

Tablatura

***********************************************************************
Nota: Noté como ambas transcripciones del sitio de esta canción estaban
a mi parecer erróneas, decidí hacer una propia, y ya que estamos, man-
darla. Disfruten, el solo se los debo. Enjoy.
***********************************************************************

INTRO
e|-------------------------------------|
B|-------------------------------------|
G|-------------------------------------|
D|------7-7-----7-----7-7-----7--------| (x4)
A|------5-5-----5-----5-5-----5-----5--|
E|--5-7-----5-7---5-7-----5-7---7-5-3--|

INTRO RIFF (x2)
Vas a estar tranquila esperando con tu tonta ambición,
Que él llegue el tan millonario, en su súper sport.
A G
Van a ir a cenar a esos lugares,
A G
Donde conmigo nunca pudiste conocer.

[INTRO] (x2)

INTRO RIFF (x2)
Quizás mi fortuna de lata nunca te iba a alcanzar,
Para comprar todas esas pieles y esas perlas del mar.
A G
Ahora volás tan alto que ignoras al barrio,
Miras para otro lado piojo resucitado.

[INTRO] (x2)

A
Vas a manchar mi camisa de fina seda,
G
Con el mejor champagne que el te va convidar.
A
Mientras yo voy estar en algún agujero,
G
Luciendo mi sa-saquito blusero.

SOLO
Base: (INTRO) (x2) (A | G) (x2)

[INTRO] (x2)

A
Vas a manchar mi camisa de fina seda,
G
Con el mejor champagne que el te va convidar.
A
Mientras yo voy estar en algún agujero,
G
Luciendo mi sa-saquito blusero.

SOLO SAXO
Base: (INTRO) (x2) (A | G) (x2)

OUTRO
e|-----------------|
B|-----------------|
G|-----------------|
D|--------7-----7--|
A|--------5-----5--|
E|--7-5-7---5-7----|