La Vida, Las Mismas Calles

La Renga

Genero: Pop

Tablatura

BUENAS! FELICIDADES.........!
ESTA ES MI PRIMER TRANSCRIPCION, MAS QUE TRANSCRIPCION
CORREGI Y AGREGUE UN PAR DE COSILLAS.......
SOY BATERISTA, JE! PERO TOCO LAS DOS COSAS........

BUENO NOS VEMOS, ESPERO QUE LES SIRVA..........!


E|---
B|-----------------------------------------------
G|--------------------------------
D|-------------------------------------------
A|-----------2-2--1234310------------2-2-------1234310-----------2-2-
E|--3-0-0-0-----------------3-0-0-0-----------------------3-0-0-0-------


VERSO: SOBRE E5 y cada vez ke termina hace el riff

Hoy me devuelvo al infinito,
porque ya me pertenezco,
hoy me devuelvo de donde vengo,
para poder continuar.

Qué es lo que dicen esas voces,
si las estrellas no hablan,
si siempre alguien del infinito me llama,

C5 D5
y todo está tan acá, acá, acá, acá, acá, acá,


E5 E5(cuerda 5,traste 7) E5 E5(cuerda 5,traste 7)

toda la vida las mismas calles,

E5 E5(cuerda 5,traste 7) E5 E5(cuerda 5,traste 7)
toda la vida las mismas calles,


E5 E5(cuerda 5,traste 7) E5 E5(cuerda 5,traste 7)
toda la vida las mismas calles,


E5 E5(cuerda 5,traste 7) E5 E5(cuerda 5,traste 7)
toda la vida las mismas calles,


Interludio:

E|-------------------------------------
B|------------------------------------
G|----9--/11--13--11---9---11--13--11--9--/11
D|----------------------------------------- ( x 2)
A|--7--/9---11---9---7----9---11---9---7--/9
E|-------------------------------------------

SOLO!

hoy doblo siempre la misma esquina,
la esquina del infinito,
toda la vida las mismas calles,
y ya no puedo volver.

¿Que es lo que mueve tu siempre?
si siempre nunca te alcanza,
si siempre alguien del infinito te llama,

C5 D5
y todo está tan acá, acá, acá ,acá, acá, acá


E5 E5(cuerda 5,traste 7) E5 E5(cuerda 5,traste 7)
Toda la vida las mismas calles,

E5 E5(cuerda 5,traste 7) E5 E5(cuerda 5,traste 7)
Toda la vida las mismas calles,


E5 E5(cuerda 5,traste 7) E5 E5(cuerda 5,traste 7)
Toda la vida las mismas calles,

E5 E5(cuerda 5,traste 7) E5 E5(cuerda 5,traste 7)
Toda la vida las mismas calles,

E5 E5(cuerda 5,traste 7) E5 E5(cuerda 5,traste 7)
Todas la vidas las mismas calles,

E5 E5(cuerda 5,traste 7) E5 E5(cuerda 5,traste 7)
Todas la vidas las mismas calles,

E5 E5(cuerda 5,traste 7) E5 E5(cuerda 5,traste 7)
Todas la vidas las mismas calles,

E5 E5(cuerda 5,traste 7) E5 E5(cuerda 5,traste 7)
Todas la vidas las mismas calles,

E|---------------------------
B|--------------------------
G|----9--/11--13--11---9---11--13--11--9--/11
D|-------------------------------------------( x 2)
A|--7--/9---11---9---7----9---11---9---7--/9---
E|--------------------------



FINAL: E5