La Boca Del Lobo

La Renga

Album: Truenotierra
Genero: Pop

Tablatura (Ver letra)

Arranque:

e|-----------------------------------------------------------|
B|-----------------------------------------------------------|
G|-----------------------------------------------------------|
D|-----------------------------------------------------------|
A|-----------------------------------------------------------|
E|--2/12(V)/2------------------------------------------------|

Riff Intro:

e|-----------------------------------------------------------|
B|-----------------------------------------------------------|
G|-----------------------------------------------------------|
D|-----------------------------------------------------------|---> 8 veces
A|-------0-----2h0------3-3-2--------------------------------|
E|-0h2h0---2h0-----2h0---------------------------------------|


F# B A B A C B A B F#
Perdido en el deseo latiendo en un polvo de emoción
F# B A B A C B A B F#
El motor que ruge en mi cabeza nos lleva a la boca del lobo
F# B A B A C B A B F#
Va tu pelo enredado en estrellas y la ciega sombra alrededor
F# B A B A C B A B F#
Contra el filoso rozar de los dientes en un aullido de velocidad


e|-----------------------------------------------------------|
B|-----------------------------------------------------------|
G|-----------------------------------------------------------|
D|--6-6---4---4--5-6------6-6---4---4--5-6-------------------|
A|--6-6---4---4--5-6------6-6---4---4--5-6-------------------|
E|--4-4---2---2--3-4------4-4---2---2--3-4-------------------|
Nada nos detiene, algo nos contiene
e|-----------------------------------------------------------|
B|-----------------------------------------------------------|
G|---4---4--2----2---3--4------4--4--2--2--3-4---------------|
D|---4---4--2----2---3--4------4--4--2--2--3-4---------------|
A|---2---2--0----0---1--2------2--2--0--0--1-2---------------|
E|-----------------------------------------------------------|
Nos lleva en sus venas, algo nos desea
e|-----------------------------------------------------------|
B|-----------------------------------------------------------|
G|---6--6----4---4--5-6-----6--6---4---4--5--6---------------|
D|---6--6----4---4--5-6-----6--6---4---4--5--6---------------|
A|---4--4----2---2--3-4-----4--4---2---2--3--4---------------|
E|-----------------------------------------------------------|
Quizá me ha gustado, haberme extraviado
e|-----------------------------------------------------------|
B|-----------------------------------------------------------|
G|---6--6----4--4--5--6-------6---6---4---4--5-6-------------|
D|---6--6----4--4--5--6-------6---6---4---4--5-6-------------|
A|---4--4----2--2--3--4-------4---4---2---2--3-4-------------|
E|-----------------------------------------------------------|
¿Dónde hemos entrado, quién nos ha tragado?

Riff Intro ---> 4 veces

F# B A B A C B A B F#
Siento el frío aferrado en tus uñas y la niebla borra la orilla
F# B A B A C B A B F#
¿Cómo se siente la tiniebla, cómo es la boca del lobo?
F# B A B A C B A B F#
Y si quiere nos traga para siempre soy el sueño de su voracidad
F# B A B A C B A B F#
Pero tu mano señala que el día viene por delante y ya sin más


e|-----------------------------------------------------------|
B|-----------------------------------------------------------|
G|-----------------------------------------------------------|
D|--6-6---4---4--5-6------6-6---4---4--5-6-------------------|
A|--6-6---4---4--5-6------6-6---4---4--5-6-------------------|
E|--4-4---2---2--3-4------4-4---2---2--3-4-------------------|
Nada nos detiene, algo nos contiene
e|-----------------------------------------------------------|
B|-----------------------------------------------------------|
G|---4---4--2----2---3--4------4--4--2--2--3-4---------------|
D|---4---4--2----2---3--4------4--4--2--2--3-4---------------|
A|---2---2--0----0---1--2------2--2--0--0--1-2---------------|
E|-----------------------------------------------------------|
Nos lleva en sus venas, algo nos desea
e|-----------------------------------------------------------|
B|-----------------------------------------------------------|
G|---6--6----4---4--5-6-----6--6---4---4--5--6---------------|
D|---6--6----4---4--5-6-----6--6---4---4--5--6---------------|
A|---4--4----2---2--3-4-----4--4---2---2--3--4---------------|
E|-----------------------------------------------------------|
Quizá me ha gustado, haberme extraviado
e|-----------------------------------------------------------|
B|-----------------------------------------------------------|
G|---6--6----4--4--5--6-------6---6---4---4--5-6-------------|
D|---6--6----4--4--5--6-------6---6---4---4--5-6-------------|
A|---4--4----2--2--3--4-------4---4---2---2--3-4-------------|
E|-----------------------------------------------------------|
¿Dónde hemos entrado, quién nos ha tragado?

Solo de saxo 1: Riff Intro ---> 8 veces

Riff 2:

e|-----------------------------------------------------------|
B|-----------------------------------------------------------|
G|-----------------------------------------------------------|
D|----2-3-4--------------------------------------------------|---> 4 veces
A|--4--------------2-3-4-------------------------------------|
E|---------------4-------------------------------------------|

Solo de saxo 2: Riff Intro ---> 4 veces

F# B A B A C B A B F#
Perdido en el deseo latiendo en un polvo de emoción
F# B A B A C B A B F#
El motor que ruge en mi cabeza nos lleva a la boca del lobo
F# B A B A C B A B F#
Va tu pelo enredado en estrellas y la ciega sombra alrededor
F# B A B A C B A B F#
Contra el filoso rozar de los dientes en un aullido de velocidad

Nada nos detiene, algo nos contiene
Nos lleva en sus venas, algo nos desea -----> IGUAL QUE ANTES
Quizá me ha gustado, haberme extraviado
¿Dónde hemos entrado, quién nos ha tragado?

Riff Intro ---> 4 veces

Riff 2:

e|-----------------------------------------------------------|
B|-----------------------------------------------------------|
G|-----------------------------------------------------------|
D|----2-3-4--------------------------------------------------|---> 3 veces
A|--4--------------2-3-4-------------------------------------|
E|---------------4-------------------------------------------|

Fin:

e|-----------------------------------------------------------|
B|-----------------------------------------------------------|
G|-----------------------------------------------------------|
D|----2-3-4--------------------------------------------------|
A|--4--------------2-3-4-5-6-7-8-9-10-11---------------------|
E|---------------4-------------------------------------------|

F#...hasta terminar


AGUANTE UNIÓN de Santa Fe Y LA RENGA!!!!