Hey, Hey, My, My

La Renga

Genero: Pop

Tablatura

INTRO
G|----------------------------------------------
R|----------------------------------------------
A|----------------------------------------------
E|-00--0-2-3-55--5-3-2-0--00-0-00--00-0-00---- x2

G|----------------------------------------------
R|----------------------------------------------
A|--------2-5-5-5-2-----------------------------
E|-33--3-5----------5-0--00-0-00--00-0-00-------

G|----------------------------------------------
R|----------------------------------------------
A|----------------------------------------------
E|-00--0-2-3-55--5-3-2-0--00-0-00--00-0-00------

HEY, HEY, MYM, MY...
G|----------------------------------------------
R|----------------------------------------------
A|---------------------------------2------------
E|-00--0-2-3-55--5-3-2-0--0-33-0-33-5-3-00------

EL ROCANROL NO MORIRA JAMAS
G|----------------------------------------------
R|----------------------------------------------
A|--------2-5-5-5-2-----------------2-----------
E|-33--3-5----------5-00---0-33-0-33-5-3-00-----

HAY MAS EN EL CUADRO...
G|----------------------------------------------
R|----------------------------------------------
A|--------2-5-5-5-2------------------2----------
E|-33--3-5----------5-00---0-33-0-33-5-3-00-----

DE LO QUE PUEDES VER
G|----------------------------------------------
R|----------------------------------------------
A|--------2-5-5-5-2-------------------2---------
E|-33--3-5----------5-00---0-33-0-33-5-3-00-----

HEY, HEY MY, MY
G|----------------------------------------------
R|----------------------------------------------
A|--------2-5-5-5-2-------------------2---------
E|-33--3-5----------5-00---0-33-0-33-5-3-00-----

LA SEGUNDA ESTROFA QUEDA EN "G"
G|----------------------------------------------
R|----------------------------------------------
A|--------2-5-5-5-2-------------------2---------
E|-33--3-5----------5-00---0-33-0-33-5-3-00-----


SOLO DE GUITARRA
G|----------------------------------------------
R|----------------------------------------------
A|----------------------------------------------
E|-00--0-2-3-55--5-3-2-0--00-0-00--00-0-00------ x2


G|----------------------------------------------
R|----------------------------------------------
A|--------2-5-5-5-2-------------------2---------
E|-33--3-5----------5-00---0-33-0-33-5-3-00----- x4

EL REY SE HA MUERTO....(TODA LA ESTROFA EN SOL)
G|----------------------------------------------
R|----------------------------------------------
A|--------2-5-5-5-2-------------------2---------
E|-33--3-5----------5-00---0-33-0-33-5-3-00-----

SOLO DE ARMONICA
G|----------------------------------------------
R|----------------------------------------------
A|----------------------------------------------
E|-00--0-2-3-55--5-3-2-0--00-0-00--00-0-00------ x2


G|----------------------------------------------
R|----------------------------------------------
A|--------2-5-5-5-2-------------------2---------
E|-33--3-5----------5-00---0-33-0-33-5-3-00-----

G|----------------------------------------------
R|----------------------------------------------
A|--------2-5-5-5---2---------------------------
E|-33--3-5-------------5--0---------------------

BUENO ESPERO QUE LES GUSTE
SI HAY QUE CORREGIR AVISEN
NOS ESTAMOS VIENDO