Hablando De La Libertad

La Renga

Genero: Pop

Tablatura

Intro(Perfecta señores):

G|-----------------------------------------------------------------------||
D|-----7---5--4--5-------------------------------------------------------||
A|-5------------------------7---5--4--5--------3--2--0---3--2--0--3--0--5||
E|----------------------5----------------3-------------------------------||

Versos:

G|-------------------------------------------------||
D|----------------------------------------00---0---||
A|--00--00---00---00-------------------------34-0--||
E|----34---34---34---33-123-123--11----------------||

Estribillo:

El estribillo tiene una base en A# y en Do

G|---------------------||--||--------------------||--||
D|---------------------||--||--------------------||--||
A|-1-1-1-1-1-1-1-1-2---||x2||--------------------||x2||
E|---------------------||--||--3-3-3-3-3-3-3-3-4-||--||


Un saludo grande a mi amigo Sergio que me ayudo a sacar gran parte del tema