En Un Rincón De Las Sierras

La Renga

Genero:

Tablatura

Introducción

C Am
1|---0--0----------------0--0---------------
2|---1----1---------1----1----1---------1---
3|---0------0-----0------2------2-----2-----
4|---2--------2-2--------2--------2-2-------
5|---3-------------------0------------------
6|---0-------------------0------------------


1|--0--0---------------0--0-----------------
2|--1----1---------1---1----1---------1-----
3|--0------0-----0-----2------2-----2-------
4|--2--------2-2-------2--------2-2---------
5|--3------------------0--------------------
6|--0------------------0--------------------



INTRO: (C-Am)x2

(1)
C
En un rincón de la sierra
Am
Donde arden las estrellas
C
Dejé mi herida abierta
Am
En un valle de penas

(2)
Dm
Casi sin darte cuenta
Am
Se te puede enfermar el corazón
Dm
Cuando uno menos lo espera
E
El veneno ya está en tus venas

(1)
En un río de deshielo
Al sol de una mañana
Trajeron en un cuerpo
A un ángel de montaña

(2)
Un par de ojos negros
Te pueden robar la ilusión
Y no hay cura ni remedio
Que te haga ver mejor

SOLO: (C-Am)x2 D-Am D-E

(1)
La luna y mi suerte
Rompieron el encanto
Perdí mi sueño en la noche
Que el ángel se hace diablo

(2)
Un par de ojos negros
Te pueden robar la ilusión
Y no hay cura ni remedio
Que te haga ver mejor