En Los Brazos Del Sol

La Renga

Album: Detonador de Sueños
Genero: Pop

Tablatura (Ver letra)


Riff1
1|--------------------
2|--------------------
3|--------------------
4|--------------------
5|---------4------3---
6|---2-2------2-------



Riff2
1|-----------------------------------
2|------------------------------------
3|------------------------------------
4|--------------------------4-3-2---
5|-------4-3-2-0-2-0-2------------
6|---2-------------------------------



Riff3
1|----------------------------------
2|----------------------------------
3|----------------------------------
4|----------------------------------
5|----2-0-2-3----2-0-2-3--------
6|-2-----------2-------------------




Riff1
Riff2 x4

A5 Riff3
Padre de la luz, de la luz primera,
A5 Riff3
Y por eso rey de toda la luz.
A5 Riff3
Alma visible del dios que ciega.
A5 Riff3
Y abraza las llamas de su propia cruz.


D5 F#5 B5 A5 F#5 B5 A5
En esta nuestra justa distancia,
D5 F#5 B5 A5 F#5 B5 A5
Si me acerco me querrás quemar,
D5 F#5 B5 A5 F#5 B5 A5
En esta nuestra justa distancia,
D5 F#5 B5 A5 F#5 B5 A5
Si me alejo me dejarás helar.


Riff2 x4

A5 Riff3
Ojo de fuego de toda esta mente,
A5 Riff3
Acá me seco con tu rayo hoy,
A5 Riff3
Cuando llegue el fin aún será de día.
A5 Riff3
Pobre el que no sude de tu calor.




D5 F#5 B5 A5 F#5 B5 A5
En esta nuestra justa distancia,
D5 F#5 B5 A5 F#5 B5 A5
Si me acerco me querrás quemar,
D5 F#5 B5 A5 F#5 B5 A5
En esta nuestra justa distancia,
D5 F#5 B5 A5 F#5 B5 A5
Si me alejo me dejarás helar.

Riff1 x4

Instrumental sobre base

Riff2 x4



A5 Riff3
Padre de la luz, de la luz primera,
A5 Riff3
Y por eso rey de toda la luz.
A5 Riff3
Alma visible del dios que ciega.
A5 Riff3
Y abraza las llamas de su propia cruz.


D5 F#5 B5 A5 F#5 B5 A5
En esta nuestra justa distancia,
D5 F#5 B5 A5 F#5 B5 A5
Si me acerco me querrás quemar,
D5 F#5 B5 A5 F#5 B5 A5
En esta nuestra justa distancia,
D5 F#5 B5 A5 F#5 B5 A5
Si me alejo me dejarás helar.


Solo sobre Riff2 y D5 F#5 B5 A5

Final: F#5 Riff1 F#5 F#5



AGUANTE TIGRE Y LA RENGA