El Rey De La Triste Felicidad

La Renga

Genero: Pop

Tablatura

Bueno esta es otra correccion porq tenia errores..



Esto se hace limpio

Pre-Intro
e |--------------------------------------------|
B |--------------------------------------------|
G |----7-7-7-7---4-4-4-4---7-7-7-7---4-4-4-4---|
D |----0-0-0-0---0-0-0-0---0-0-0-0---0-0-0-0---| 100 % correcticima
A |----5-5-5-5---2-2-2-2---5-5-5-5---2-2-2-2---|
E |--------------------------------------------|

Esto se hace todo con distorcion

INTRO:
E |---------------------------------------------------------|
B |---------------------------------------------------------|
G |------------10-10---------------------9-10-9-10-9--------|
D |---9-9-9-9--10-10------12----9-9-9-9--9-10-9-10-9--------| X 2
A |---9-9-9-9--8--8-------12----9-9-9-9--7-8--7-8--7--------|
E |---7-7-7-7---------7-9-10----7-7-7-7---------------------|


INTRO x2

D5 B5
¿Qué podemos hacer cuando se sienta mal?
D5 B5
si está bancando su bronca masticando vidrios
D5 B5
¿Quién lo quiere invitar a ver televisión?
G5 D5
¿Quién sacará las astillas de su corazón?
A5 E5 G5
¿Qué podrán decir? ¿Quién lo va a convencer?

INTRO x2

¿Qué podemos hacer cuando se sienta bien?

si está salvando su sueño anestesiándose

¿Quién lo quiere invitar con un electroshock?

¿Quién lamerá los rasguños de su desesperación?

¿Qué podemos decir? ¿Quién lo va a convencer?

INTRO

G5 C5
Se ha convertido en daga el dolor de este tonto rey,
G5 C5
rey de un reino sin mundo, reino que no tiene ley,
D5 A5
rey que se desangra pero aún tiene esperanzas,
C5 E5 G5
serás feliz siendo triste, rey qué puedo decirte.

SOLO:

Base (Si5 Mi5) x2

_Este solo se hace
todo mobiendo el wha wha.
Rapido !
e|------------------------------------------------------------|
B|----3----Arrastra a----9------------------------------------|
G|--2-----------------8------------8---------8----------10----|
D|--------------------------8--10-----8--10-----8--8--8-------|
A|------------------------------------------------------------|
E|------------------------------------------------------------|

Aca ya no usa mas wha wha.

Sigue Base (Re5 Si5) x4

Ahora solo distorción

e|-----------------------------------|
B|-----12-12-12-12-12--9--10--12-12--|
G|--9--------------------------------|
D|-----------------------------------|Sigue --->>
A|-----------------------------------|
E|-----------------------------------|

e|-------------------------------------------|
B|--10-9--9-9-9--8-8-8--7-6-7--6-7-8--9--12--|
G|-------------------------------------------|
D|-------------------------------------------|Sigue --->>
A|-------------------------------------------|
E|-------------------------------------------|

e|-------------------------------------------------------------|
B|--0-7-0-8-0--10---0-7-0-8-0--10---12--10-8-8-7-7--6--7~-7>11-|
G|-------------------------------------------------------------|
D|-------------------------------------------------------------|Sigue-->>
A|-------------------------------------------------------------|
E|-------------------------------------------------------------|

e|-------------------------------------------------------|
B|--0-7-0-8-0--10---0-7-0-8-0--10---12-12-12--15-15--17b-|
G|-------------------------------------------------------|
D|-------------------------------------------------------|
A|-------------------------------------------------------|
E|-------------------------------------------------------|

Fin del solo.. lo tube que transcribir asi cortado
porque no me lo aceptaba.



D5 B5
Nada podemos hacer cuando se sienta mal,
D5 B5
nada podemos hacer cuando se sienta bien,
A5 G5
él es el rey de una maldición que lo hizo rey,
A5 E5 G5
será feliz siendo triste, rey qué puedo decirte.

INTRO x4

Fin
==========================================================

MADE IN TOCO ..

Bueno suena muy bien puede tener muy pocos errores ...

Chau suerte !!

PD: Consulten a mi mail fran_1890@hotmail.com